Cristian Castro

No Podrás

Cristian Castro

tabs Advanced advanced

by  SABRJOAO

save to print version add songbook text version e-mail correct tuner
chordsukulelecavacokeyboardtabbassdrumsharmonicaflute Guitar Pro
close

there isn't a video lesson for this song

chords

No Podrás

(P. Skrabeak / Alex Zepeda)

	  		Versión identica al CD. 

Intro X2 

e|-----------------------------------------------------------------| 
B|------------------------------------------3----------------------| 
G|------7---8-7---------5---7-5---------3------3-----------3-------| 
D|----8---8-----5-7---7---7-----3-5---5---5-----5------5-------5^3-| 
A|-10--------------------------------------------3---3---3---3-----| 
E|-----------------------------------------------------------------| 


G5            C5       F5 
Tal vez te olvides de mí 
             Bb5     Riff1 
Tal vez me olvide de ti 

Este es el Riff1 
|------------------------------| 
|-------3----------------------| 
|---3------3-----------3---3/5-| 
|-5---5-----5------5-----------| 
|------------3---3---3---3-----| 
|------------------------------| 

G5         C5       F5 
Pero esta vez aprendí 
          Bb5      Riff2 
Que no se debe mentir 

|--------------------------------| 
|-------3------------------------| 
|---3------3-----------3----p----| 
|-5---5-----5------5-------5-3/5-| 
|------------3---3---3---3-------| 
|--------------------------------| 


G5         C5     F5 
De una promesa viví 
           Bb5     Riff2 
Hoy ya no puedo seguir 

            Bb5   
Creyendo en ti 

(El teclado cambia de tono pero la guitarra no 
 no se confundan, igual que en el coro)   

Eb5 

Bb5 
Cada momento 
          Bb5      A5  G5 
Voy tropezando en desamor 
              C5   
Y es que no queda 
         F5        Eb5 
Nada entre tu y yo 

Bb5  
Si estoy llorando 
                 Bb5     A5  G5 
No es que te extrañe el corazón 
             C5 
Es que a tu lado 
          F5 
Comprendí el dolor 

       Eb5 
No podrás olvidar 
         D5 
Que te ame 
         G5     F5  Eb5 
Como yo nunca imagine 
               D5       
Estaré en tu piel 
        G     F       Eb5 
Cada momento donde estes 
                    D5 
Siempre habrá un lugar 
          G5     F5   Eb5 
Algún recuerdo que será 
     F5    Bb5 
Un eterno suspirar  

|----------------| 
|---p-------p----| 
|-/8-7/5/3/8-7-7-| 
|----------------| 
|----------------| 
|----------------| 




Solo 
|--------------------------------------------| 
|--------------------------------------------| 
|--------------------------------------------| 
|---------------------3-1-0-1-3----------p---| 
|-----5---6-6-5-3---------------1~----3/5-3~-| 
|-3-6---6-----------1---------------1--------| 

* CON LA PALANCA o tremolo 
|-------------------------------------------------------| 
|------h-p---------------------------------8-8/10/8*-8*-| 
|--h--3-5-3---------7-8-7-5--------3---5/7--------------| 
|-3-5-------3/5~--5---------3--3-5---5------------------| 
|-------------------------------------------------------| 

|-11*-11*---18-13-------13-15-17-----18----22----20-18--| 
|-----------------15-16-----------18----18----18--------| 
|-------------------------------------------------------| 
|-------------------------------------------------------| 
|-------------------------------------------------------| 
|-------------------------------------------------------| 

          full      ½ 
          / \      /  
|-------18--18---20---18--------------------------------| 
|------------------------20-18---------h--p-------------|   
|-17/15------------------------19-17-17-19-17/15--------| 
|-------------------------------------------------------| 
|-------------------------------------------------------| 
|-------------------------------------------------------| 

|---------h---15-------15-------------------------------| 
|---h---15-18----15-18-----15-16-18-16-15-13-11/16-15-15| 
|-15-18-------------------------------------------------| 
|-------------------------------------------------------| 
|-------------------------------------------------------| 
|-------------------------------------------------------| 
                                     ½ 
|---------h---15-------18---p---18--/ \-----| 
|---h---15-18----15-18----18-17----15--15~~-| 
|-15-18-------------------------------------| 
|-------------------------------------------| 
|-------------------------------------------| 
|-------------------------------------------| 

Cortesía de Angel Bárcena C. 

~~Å~~
		  

Full key step upFull key step up
Half key step upHalf key step up
Half key step downHalf key step down
Full key step downFull key step down
auto scroll beats size up size down change color hide chords drawings
tab show chords e-chords YouTube Clip e-chords hide all tabs e-chords go to top tab

share