Conan Gray

Radio

Conan Gray

tabs

by  MARCKOSMAV

save to print version add songbook text version e-mail correct tuner
chordsukulelecavacokeyboardtabbassdrumsharmonicaflute Guitar Pro
close

there isn't a video lesson for this song

chords

Radio

(Conan Gray )

	  		{verse 1} 

           Not even they can stop me now... 

e|-------2----------------2-------2----------------------------------2---- 
B|-----3----------------3-------3----------2--------0--------0-----3------| 
G|---2----------------2-------2----------2--------0--------0-----2--------| 
D|-0----------------0-------0----------2--------2--------------0----------| 
A|-----------------------------------0--------2---------2-----------------| 
E|----------------------------------------------------3-------------------| 

  
e|-------2--------2-------------------------------------------------------| 
B|-----3--------3----------2-----------0--------0-------------------------| 
G|---2--------2----------2-----------0--------0---------------------------| 
D|-0--------0----------2-----------2--------------------------------------| 
A|-------------------0-----------2---------2------------------------------| 
E|---------------------------------------3--------------------------------| 


  

{Pre Chorus} 

e|-------------------------------------------2--------2----------------------| 
B|-------0--------0--------0---------0-----3--------3----------2-------------| 
G|-----0--------0--------0---------0-----2--------2----------2---------------| 
D|---2--------2------------------------0--------0----------2-----------------| 
A|-2--------2---------2---------2------------------------0-------------------| 
E|------------------3---------3----------------------------------------------| 



{Chorus} 

e|-----------------------2-------2------------------------------------------- 
B|-----0-------0---------3-------3--------2-------2-------0-------0----------| 
G|-----0-------0------2----2---2---2------2-------2-------0-------0----------| 
D|---0---0---0---0--0--------0----------2---2---2---2---2---2---2---2--------| 
A|------------------------------------0-------0-------2-------2--------------| 
E|-3-------3-----------------------------------------------------------------| 

  
e|-----------------------2-------2-------------------------------------------| 
B|-----0-------0---------3-------3--------2-------2-------0-------0----------| 
G|-----0-------0------2----2---2---2------2-------2-------0-------0----------| 
D|---0---0---0---0--0--------0----------2---2---2---2---2---2---2---2--------| 
A|------------------------------------0-------0-------2-------2--------------| 
E|-3-------3-----------------------------------------------------------------| 

  

{verse 2} 

e|-------2----------------2-------2----------------------------------2---- 
B|-----3----------------3-------3----------2--------0--------0-----3------| 
G|---2----------------2-------2----------2--------0--------0-----2--------| 
D|-0----------------0-------0----------2--------2--------------0----------| 
A|-----------------------------------0--------2---------2-----------------| 
E|----------------------------------------------------3-------------------| 


e|-------2--------2-------------------------------------------------------| 
B|-----3--------3----------2-----------0--------0-------------------------| 
G|---2--------2----------2-----------0--------0---------------------------| 
D|-0--------0----------2-----------2--------------------------------------| 
A|-------------------0-----------2---------2------------------------------| 
E|---------------------------------------3--------------------------------| 

  

{Pre Chorus} 

e|-------------------------------------------2--------2----------------------| 
B|-------0--------0--------0---------0-----3--------3----------2-------------| 
G|-----0--------0--------0---------0-----2--------2----------2---------------| 
D|---2--------2------------------------0--------0----------2-----------------| 
A|-2--------2---------2---------2------------------------0-------------------| 
E|------------------3---------3----------------------------------------------| 
  

{Chorus} 

e|-----------------------2-------2-------------------------------------------| 
B|-----0-------0---------3-------3--------2-------2-------0-------0----------| 
G|-----0-------0------2----2---2---2------2-------2-------0-------0----------| 
D|---0---0---0---0--0--------0----------2---2---2---2---2---2---2---2--------| 
A|------------------------------------0-------0-------2-------2--------------| 
E|-3-------3-----------------------------------------------------------------| 

e|-----------------------2-------2-------------------------------------------| 
B|-----0-------0---------3-------3--------2-------2-------0-------0----------| 
G|-----0-------0------2----2---2---2------2-------2-------0-------0----------| 
D|---0---0---0---0--0--------0----------2---2---2---2---2---2---2---2--------| 
A|------------------------------------0-------0-------2-------2--------------| 
E|-3-------3-----------------------------------------------------------------| 

  
{Bridge} 
e|-----------------------2-------2-------------------------------------------| 
B|-----0-------0---------3-------3--------2-------2-------0-------0----------| 
G|-----0-------0------2----2---2---2------2-------2-------0-------0----------| 
D|---0---0---0---0--0--------0----------2---2---2---2---2---2---2---2--------| 
A|------------------------------------0-------0-------2-------2--------------| 
E|-3-------3-----------------------------------------------------------------| 

  
e|-----------------------2-------2-------------------------------------------| 
B|-----0-------0---------3-------3--------2-------2-------0--------0---------| 
G|-----0-------0------2----2---2---2------2-------2-------0-------0----------| 
D|---0---0---0---0--0--------0----------2---2---2---2---2---2---2------------| 
A|------------------------------------0-------0-------2-------2--------------| 
E|-3-------3-----------------------------------------------------------------| 

  

{Chorus} 
e|-----------------------2-------2-------------------------------------------| 
B|-----0-------0---------3-------3--------2-------2-------0-------0----------| 
G|-----0-------0------2----2---2---2------2-------2-------0-------0----------| 
D|---0---0---0---0--0--------0----------2---2---2---2---2---2---2---2--------| 
A|------------------------------------0-------0-------2-------2--------------| 
E|-3-------3-----------------------------------------------------------------| 



e|-----------------------2-------2-------------------------------------------| 
B|-----0-------0---------3-------3--------2-------2-------0-------0----------| 
G|-----0-------0------2----2---2---2------2-------2-------0-------0----------| 
D|---0---0---0---0--0--------0----------2---2---2---2---2---2---2---2--------| 
A|------------------------------------0-------0-------2-------2--------------| 
E|-3-------3-----------------------------------------------------------------| 

  

{Outro} 

e|-----------------------| 
B|-----0-------0---------| 
G|-----0-------0---------| 
D|---2---2---2---2-------| 
A|-2-------2--------2----| 
E|-----------------------| 
		  

See also:

tabs Jason Mraz - 93 Million Miles tabs Lindsay Lohan - Take me away tabs Kanye West - All Falls Down tabs Stevie Wonder - Sir Duke tabs Michael Jackson - BILLIE JEAN tabs Michael Jackson - Thriller
e-chords

Other versions:

tabs Alkaline Trio - Radio tabs Goldfinger - Radio tabs Dirty Heads - Radio tabs Rammstein - Radio tabs Conan Gray - Radio tabs The Ataris - Radio #2 (ver. 1)
auto scroll beats size up size down change color hide chords drawings
tab show chords e-chords YouTube Clip e-chords hide all tabs e-chords go to top tab

share