Choking Victim

home > Choking Victim

Infested Tab

Choking Victim

Difficulty: nolevelnolevel

tuner correct add songbook print version text version save to e-mail
chordsukulelecavacokeyboardtabbassdrumsharmonicsflute Guitar Pro
chords

Infested

  		This is a badass song so learn it. 
 
Infested 
By: Choking Victim 
 
Intro X4 
 
 .e|----------------------------------12------------------------------ 
  b|--9-9---10?9-9---12?9-9--------9-9---12----9-9---10--------------- 
  g|------------------------------------------------------------------ 
  d|------------------------------------------------------------------ 
  a|------------------------------------------------------------------ 
 E|------------------------------------------------------------------- 
 
 
Intro 2/Chorus/Heavy Verse 
  
 .e|-------------------------------------------------------------------- 
  b|-------------------------------------------------------------------- 
  g|---9---------------------------------------------------------------- 
  d|---9---7----11----9------------------------------------------------- 
  a|---7---7----11----9------------------------------------------------- 
 E|--------5----9-----7------------------------------------------------- 
 
Ska Verse 
 .e|----7-x-7-x 7-x-7-x-7-x -----5-x-5-x-5-x-5-x-5-x ------------------- 
  b|----9-x-9-x-9-x-9-x-9-x -----5-x-5-x-5-x-5-x-5-x ------------------- 
  g|----9-x-9-x-9-x-9-x-9-x -----6-x-6-x-6-x-6-x-6-x ------------------- 
  d|-------------------------------------------------------------------- 
  a|-------------------------------------------------------------------- 
 E|--------------------------------------------------------------------- 
 
 .e|--9--x---9--x 9--x 9--x ---7-x-7-x 7-x-7-x ------------------------- 
  b|--9--x--9---x 9--x-9--x ---7-x-7-x-7-x-7-x ------------------------- 
  g|--10-x--10-x 10-x-10-x --8-x-8-x-8-x-8-x --------------------------- 
  d|-------------------------------------------------------------------- 
  a|-------------------------------------------------------------------- 
 E|--------------------------------------------------------------------- 
 

	  

Search Paypal
auto scroll beats size up size down change color hide chords drawings
tab show chords e-chords YouTube Clip e-chords hide all tabs e-chords go to top tab