Choking Victim

home > Choking Victim

Infested Bass Tab

Choking Victim

Difficulty: nolevelnolevel

tuner correct add songbook print version text version save to e-mail
chordsukulelecavacokeyboardtabbassdrumsharmonicsflute Guitar Pro
chords

Infested

  		

I saw the tabs for this song sucked, so I decided to make a good one. Sadly I'm not even a bass player.


Standard Tuning


Chorus (not exact amount of notes...obviously)

G----------------------------|
D----------------------------| 
A--7-------------------------|
E-----5--9--7----0--5--9--7--|


Verse

G-------------------------------------------------------------------|
D---------9-9-9-9---------------------------------------------------|
A--7-7--7-----------------7-------------11-11-11-11---------9-------|
E------------------5-5--5---5-\\-9-9--9--------------7-7--7---5\4-2-|

the last time you do the verse, play this
G-------------|
D-------------|
A-------------|
E--5--4--2--0-|

instead of  
G--------|
D--------|
A--------|
E--5\4-2-|

	  

Search Paypal
auto scroll beats size up size down change color hide chords drawings
tab show chords e-chords YouTube Clip e-chords hide all tabs e-chords go to top tab