Chester See

Radioactive

Chester See

tabs

by  JOAOEWERTON

save to print version add songbook text version e-mail correct tuner
chordsukulelecavacokeyboardtabbassdrumsharmonicaflute Guitar Pro
close

there isn't a video lesson for this song

chords

Radioactive

	  		This is my first tab! If there are any mistakes, please let me know in the comments :) 

 
 



INTRO 

------------|------------|------------|--2----2----| 
--1----1----|--1----1----|--0----0----|--3----3----| 
--2----2----|--0----0----|--0----0----|----2----2--| repeat this until the 
----2----2--|----0----0--|----0----0--|------------| end of the first Chorus 
------------|------------|------------|------------| 
------------|------------|------------|------------| 



VERSE AND OTHER Chorus 

you can have someone on another guitar strum the chords once at the beginning  of each  
box while someone plays the following tab: 

Am                             C 
-----------------------------|-----------------------------| 
------------------1h3h1------|------------------1h3h1------| 
----------2---------------0--|----------0---------------0--| 
------2-------2--------------|------2-------2--------------| 
--0--------------------------|--3--------------------------| 
-----------------------------|-----------------------------| 

G                              D 
-----------------------------|----------------3---0--| 
------------------0h1h0------|---------3-------------| 
----------0---------------0--|-----2------2----------| 
------0-------0--------------|--0--------------------| 
-----------------------------|-----------------------| 
--3--------------------------|-----------------------| 



BRIDGE 
In the song they strum the chords once (I think) 
I changed it a little to make it sound better if you're playing alone. Or you can just  
make up something yourself too... 

-------------|-------------|------------|-------------| 
--1-----1--1-|-1-----------|-0-----0--0-|-------------| 
--2-----2--2-|-2-----------|-0-----0--0-|-2-----------| 
-----------2-|-------------|----------0-|-0-----------| 
--0----------|-3-----------|------------|-------------| 
-------------|-------------|-3----------|-------------| 
all    systems go           sun    hasn't died 
deep    in my  bones      straight from in-side          I'm waking.... 






* If you are playing alone, playing the same tab during the Chorus and the verses will  
get boring/annoying. To make it sound a little different, i like to change the tab during  
the Chorus: (NOTE: this is not in the song, i just made this part up as an example) 
(Am)                     (C)                    (G) 
----------------0-------|----------------------|--------------------| 
---------1-----------1--|--------------1-------|---------0----------| 
---------2--------------|----------0-----0-----|---------0---0------| 
-----2------------------|------2------------2--|-----0-----------0--| 
--0----------0----------|--3-------------------|--------------------| 
------------------------|----------------------|--3-----------------| 

(D) 
----------2------| 
----------3---3--| 
------2----------| 
--0-------0------| 
-----------------| 
-----------------| 

(If you want to make up your own to make it more original, anything sounds great as long  
as you keep the same base chords: Am,C,G,D) 

LYRICS 

I feel it in my bones 
Enough to make my systems blow 
Welcome to the new age, to the new age 
Welcome to the new age, to the new age 


I'm waking up to ash and dust 
I wipe my brow and I sweat my rust 
I'm breathing in the chemicals 

I'm breaking in, shaping up, then checking out on the prison bus 
This is it, the apocalypse 
Whoa 

I'm waking up, I feel it in my bones 
Enough to make my systems blow 
Welcome to the new age, to the new age 
Welcome to the new age, to the new age 
Whoa, whoa, I'm radioactive, radioactive 
Whoa, whoa, I'm radioactive, radioactive 

I raise my flags, don my clothes 
It's a revolution, I suppose 
We're painted red to fit right in 
Whoa 

I'm breaking in, shaping up, then checking out on the prison bus 
This is it, the apocalypse 
Whoa 

I'm waking up, I feel it in my bones 
Enough to make my systems blow 
Welcome to the new age, to the new age 
Welcome to the new age, to the new age 
Whoa, whoa, I'm radioactive, radioactive 
Whoa, whoa, I'm radioactive, radioactive 

All systems go, the sun hasn't died 
Deep in my bones, straight from inside 

I'm waking up, I feel it in my bones 
Enough to make my systems blow 
Welcome to the new age, to the new age 
Welcome to the new age, to the new age 
Whoa, whoa,I'm radioactive, radioactive 
Whoa, whoa,I'm radioactive, radioactive 

I'm waking up... 
		  

Full key step upFull key step up
Half key step upHalf key step up
Half key step downHalf key step down
Full key step downFull key step down
hide glossary

See also:

tabs Michael Jackson - Billie Jean (Fingerstyle) tabs Ashlee Simpson - Pieces Of Me tabs Gavin Degraw - I Don't Want To Be tabs Michael Jackson - Beat It, Black Or White E Ben (riffs) tabs Camp Rock - This Is Me tabs Gavin Degraw - I Don't wanna Be
e-chords

Other versions:

tabs Boyce Avenue - Radioactive tabs Chester See - Radioactive tabs Lindsey Stirling - Radioactive
auto scroll beats size up size down change color hide chords drawings
tab show chords e-chords YouTube Clip e-chords hide all tabs e-chords go to top tab

share