Cazuza

home > Cazuza

Maior abandonado Tab

Cazuza

Difficulty: BeginnerBeginner

by Baquit

tuner correct add songbook print version text version save to e-mail
chordsukulelecavacokeyboardtabbassdrumsharmonicsflute Guitar Pro
chords

Maior abandonado

Year: 1998 - Album: Cazuza & Barao

(Frejat / Cazuza)

  		Intro
E|------------------------------------------------------------------|
B|------------------------------------------------------------------|
G|------------------------------------------------------------------|
D|------3--0-----0-3------3--0------0-3------3--0---0---------3--5--|
A|--3---------3--------3---------3--------3-------3---3-3-0---1--3--|
E|--1------------------1------------------1-------------------------|



 Solo: (Segue por toda a música sobre os acordes da introdução)
E|-------------------------------------------------------|
B|-------------------------------------------------------|
G|-------------------------------------------------------|
D|-------------------------------------------------------|
A|--7-7-5---5-7---7-7-5---5-7---7-7-5---5-7--5-2-2/4-2---|
E|--------7-------------7-------------7------------------|

E	C#m  B
Eu tô perdido, sem pai nem mãe, bem na porta da sua ca..sa
E	            C#m   B
Eu tô pedindo, a tua mão, e um pouquinho do bra..ço
A           B            A      B
Migalhas dormidas do teu pão
A          G#m         F#
Raspas e restos me interessam
A            B          A      B
Pequenas porções de ilusão

(RIFF 1)
E|------------------|
B|--5/7-7-5-4-0-4/5-|
G|------------------|
D|------------------|
A|------------------|
E|------------------|
A           G#m          F#             B         
Mentiras sinceras me interessam, me interessam...
E                                              C#m  B
Eu tô pedindo, a tua mão, me leve para qualquer la..do
E                                          C#m  B
Só um pouquinho de proteção ao maior abandona..do
A          B           A     B
Teu corpo com amor ou não

(RIFF 1)
E|------------------|
B|--5/7-7-5-4-0-4/5-|
G|------------------|
D|------------------|
A|------------------|
E|------------------|
A         G#m          F#
Raspas e restos me interessam
A       B          A     B
Me ame como a um irmão

(RIFF 2)
E|--14--12-11--|
B|-------------|
G|-------------|
D|-------------|
A|-------------|
E|-------------|

A           G#m          F#             B
Mentiras sinceras me interessam, me interessam...


Solo:(E C#m B)
 E|------------------------------------------------------|
 B|--5-5-3---3-5---5-5-3---3-5---5-5-3---3-5--3----------|
 G|--------4-------------4-------------4--------4--4/6-4-|
 D|------------------------------------------------------|
 A|------------------------------------------------------|
 E|------------------------------------------------------|
A           B            A      B
Migalhas dormidas do teu pão
A         G#m          F#       
Raspas e restos me interessam
A           B          A      B
Pequenas porções de ilusão
(RIFF 1)
E|------------------|
B|--5/7-7-5-4-0-4/5-|
G|------------------|
D|------------------|
A|------------------|
E|------------------|

A           G#m          F#             B
Mentiras sinceras me interessam, me interessam...
E                                            C#m  B
Estou pedindo a tua mão me leve pra qualquer la..do
E                                         C#m  B
Só um pouquinho de proteção ao maior abandona..do

(E C#m B) E
	  

Full key step upFull key step up
Half key step upHalf key step up
Half key step downHalf key step down
Full key step downFull key step down
Search Paypal
auto scroll beats size up size down change color hide chords drawings
tab show chords e-chords YouTube Clip e-chords hide all tabs e-chords go to top tab