Catfish And The Bottlemen

home > Catfish And The Bo...

Tyrants Tab

Catfish And The Bottlemen

Difficulty: nolevelnolevel

by tamamoreira

tuner correct add songbook print version text version save to e-mail
chordsukulelecavacokeyboardtabbassdrumsharmonicsflute Guitar Pro
chords

Tyrants

Key:  Em More
Tyrants Key BmBm
Tyrants Key CmCm
Tyrants Key C#mC#m
Tyrants Key DmDm(one step down)
Tyrants Key D#mD#m(half step down)
Tyrants Key EmEm(original key)
Tyrants Key FmFm(half step up)
Tyrants Key F#mF#m(one step up)
Tyrants Key GmGm
Tyrants Key G#mG#m
Tyrants Key AmAm
Tyrants Key A#mA#m
  		Intro, Guitar 1 ( 
Capo on 6): 
Play this clean. The actual version is picked pretty randomly but here's a basis that you can work around 
e|-2--2-2--2---2---2-2-2-2-------------3--3-3--3-3-3-0------0----0---0-2---| 
B|-3--3-3--2h3-2h3-3-3-3-3--------3-3--3--3-3--3-3-3-0---0--0-0--0-0-0-0---| 
G|-4--4-4--4---4---4-4-4-4---(x2)-2-2--4--4-4--4-4-4-0---0--0-0--0-0-0-0---| 
D|-4--4-4--4---4---4-4-4-4--------0-0--5--5-5--5-5-5-----2--2-2--2-2-2-----| 
A|-2--2-2--2---2---2-2-2-2--------0-0--5--5-5--5-5-5-----2--2-2--2-2-2-----| 
E|-------------------------------------3--3-3--3-3-3-----0----0--0-0-------| 

Part 2 (a little distortion and slightly faster): 
e|-2-------2---2---2-2-2-2-------------3--3-3-------------------------------2---222-| 
B|-3-------2h3-2h3-3-3-3-3--------3-3--3--3-3-----------------0--0-0--0-0-0-0---333-| 
G|-4-------4---4---4-4-4-4---(x2)-2-2--4--4-4---4-2-0---0-----0--0-0--0-0-0-0---444-| 
D|-4-------4---4---4-4-4-4--------0-0--5--5-5---------4---4---2--2-2--2-2-2-----444-| 
A|-2-------2---2---2-2-2-2--------0-0--5--5-5-----------------2--2-2--2-2-2-----222-| 
E|-------------------------------------3--3-3-----------------0--0-0--0-0-0---------| 
 | 
 | Guitar 2 (NO CAPO + w/ light distortion): 
e|--------------------------------------------------| 
B|----16--------16------16-18-16---------16---------| 
G|------17---------17------------17---------17------| 
D|-15--------15-----------------------15------------| 
A|--------------------------------------------------| 
E|--------------------------------------------------| 

Verse: 
Guitar 1: 
e|-222--------2---3--3-3----------2----------3------------------------------| 
B|-333--------3-3-3--3-3-0---0-0--3----------3--------------------0---------| 
G|-444--------4-2-4--4-4-0---0-0--4----------4--------------------0---------| 
D|-444--------4-0-5--5-5-2---2-2--4----------5--------------------2---------| 
A|-222--------2-0-5--5-5-2---2-2--2----------5--------------------2---------| 
E|----------------3--3-3-0---0-0-------------3--------------------0---------| 
 | 
 |Guitar 2: 
e|-------------------------------------------------------------------------------------------------| 
B|-------------------------------------------16b18-16b18----------16-16b18-16b18-------------------| 
G|-------------------------------------------------------17----------------------17----------------| 
D|----------------------------------------------------------15-15-------------------15-15-15-15-15-|  
A|-------------------------------------------------------------------------------------------------|   
E|-------------------------------------------------------------------------------------------------| 

Repeat intro part 2  
Repeat verse second section 

Chorus: 
Guitar 1: 
   (clean) 
e|-2-0-3-5-5----------------------------------------------2-0-3-5-5-------------------| 
B|-3-2-3-7-7----------------------------------------------3-2-3-7-7-------------------| 
G|-4-2-4-7-7--x15-----------------------------------------4-2-4-7-7--x15--------------| 
D|-4-2-5-7-7----------------------------------------------4-2-5-7-7-------------------| 
A|-2-0-5-5-5----------------------------------------------2-0-5-5-5-------------------| 
E|-----3------------------------------------------------------3-----------------------| 
 | 
 |Guitar 2: 
e|----------------------------------------------------------------18-16----------------16-18-16----------------| 
B|----------------------------------------------------------------------18-16----16-18----------18-16----16-18-| 
G|---------13-13-13-13-13-13-10-10-13-13-13-13-13br-10-10---------------------17----------------------17-------| 
D|-------------------------------------------------------------------------------------------------------------| 
A|-------------------------------------------------------------------------------------------------------------| 
E|-------------------------------------------------------------------------------------------------------------| 

Repeat Chorus 

Post Chorus/pre Solo: 
Guitar 1: 
e|-5--------------------------------------------------------------------------| 
B|-7--------------------------------------------------------------------------| 
G|-7-(x alot)-----------------------------------------------------------------| 
D|-7--------------------------------------------------------------------------| 
A|-5--------------------------------------------------------------------------| 
E|----------------------------------------------------------------------------| 
 | 
 |Guitar 2: 
e|-18-16----------------16-18-16----------------16-18-16----16-18-16----16-18-16----16-16-| 
B|-------18-16----16-18----------18-16----16-18----------18----------18----------18-------| 
G|-------------17----------------------17-------------------------------------------------| 
D|----------------------------------------------------------------------------------------| 
A|----------------------------------------------------------------------------------------| 
E|----------------------------------------------------------------------------------------| 


Solo: 
Guitar 1: 
e|------------------------------------------------------------------------------------------------------------| 
B|-2-2-2-2-2-2-2-0-0-0-0-0-0-0-0-2-2-2-2-2-2-2-2-0-0-0-0-0-0-0-2--2--2-2-2-2-0-0-0-0-0-0-0-0-2--2--2-2-2-2-0--| 
G|-2-2-2-2-2-2-2-0-0-0-0-0-0-0-0-2-2-2-2-2-2-2-2-0-0-0-0-0-0-0-2--2--2-2-2-2-0-0-0-0-0-0-0-0-2--2--2-2-2-2-0--| 
D|-2-2-2-2-2-2-2-0-0-0-0-0-0-0-0-2-2-2-2-2-2-2-2-0-0-0-0-0-0-0-2--2--2-2-2-2-0-0-0-0-0-0-0-0-2--2--2-2-2-2-0--| 
A|------------------------------------------------------------------------------------------------------------| 
E|------------------------------------------------------------------------------------------------------------| 
 | 
 |Guitar 2: 
e|----------------------------16-13--13------------------------------------------------------------------------| 
B|---------16-----13---------------16--16-13-16-13--13---------------------------------------------------------| 
G|-15b17r15--15b17--15-13-------------------------15--15-13-15-13--13--------------------------8---------------| 
D|----------------------------15---------------------------------15--15-13-15-13--13-------8-10-10-8--11-10-6s8| 
A|------------------------------------------------------------------------------15---x-8-11--------------------| 
E|-------------------------------------------------------------------------------------------------------------| 

Break: 
Guitar 1: 
e|----------------| 
B|-0--7--12--5----| 
G|-0--7--12--5----| repeat several times, starting clean, getting heavier 
D|-2--7--12--5----| 
A|-2--5--10--3----| 
E|-0--5--10--3----| 
 | 
 |Guitar 2: 
e|-----------------13----11---------------------|                      |-14-11--------| 
B|--------------14----13-------14----14---------|                      |-13-13--14-14-| 
G|--------------------------13----15----15------|A few times, and then |--------13-15-| 
D|----------------------------------------------|                      |--------------| 
A|----------------------------------------------|                      |--------------| 
E|----------------------------------------------|                      |--------------| 

A bit of feedback etc 


I have tabbed as if guitar 2 is still the lead, but it may be more accurate to play the outro lead on guitar 
1, and then play corresponding chords etc w/out the capo on guitar 2. Matter of preference I guess. 

Outro part 1: 
Guitar 1 
e|-----------------------------------------------------------------------------------| 
B|-----------------------------------------------------------------------------------| 
G|-5-5-5-5-------------------------------------------------10------10-----10----10---| 
D|-5-5-5-5--and so on------------------------------------11------11-----11----11-----| 
A|-3-3-3-3---------------------------------------------9-------9-------9-----9-------| 
E|-3-3-3-3--------------------------------------------9-------9-------9-----9--------| 
 |                                                   |--------------PM------------| 
 |Guitar 2: 
e|--------------------------------------------------| 
B|--------------------------------------------------| 
G|-------------------------11-11-11-11-13-13-13-13--| 
D|-13-13-13-13-15-15-15-15--------------------------| 
A|--------------------------------------------------| 
E|--------------------------------------------------| 

Guitar 1: 
e|------------------------------------------------------------------------------| 
B|------------------------------------------------------------------------------| 
G|-5-5-5-5----------------------------------------------------------------------| 
D|-5-5-5-5--and so on again-----------------------------------------------------| 
A|-3-3-3-3----------------------------------------------------------------------| 
E|-3-3-3-3----------------------------------------------------------------------| 
 | 
 |Guitar 2: 
e|----------------------------------------------------------13-13-13-13-16-16-16-16-18-18-18-18-21-21-21-212121| 
B|-------------13-13-13-13-14-14-14-14-16-16-16-16-16161616----------------------------------------------------| 
G|-15-15-15-15-------------------------------------------------------------------------------------------------| 
D|-------------------------------------------------------------------------------------------------------------| 
A|-------------------------------------------------------------------------------------------------------------| 
E|-------------------------------------------------------------------------------------------------------------| 

Outro part 2: 
Guitar 1: 
e|------------------------------| 
B|-5-------7-------0-------3----| 
G|-5-------7-------0-------4----| Play through 4 times 
D|-5-------7-------2-------5----| 
A|-3-------5-------2-------5----| 
E|-----------------0-------3----| 
 | 
 |Guitar 2: 
e|-16-14-13----13-14-16-14-13----14-13----14-13--16-14-13----13-14--------------|   | 
B|----------16----------------14-------14-----------------16--------------------|   | 
G|-----------------------------------------------------------------|13-11-10----|x4 | 
D|-----------------------------------------------------------------|---------13-|   | Play through twice 
A|------------------------------------------------------------------------------|   | 
E|------------------------------------------------------------------------------|   | 
  |-each note 2 or 3 times -| 

Final outro section: 
Guitar 1: 
e|-----------------------| 
B|-5---------------------| 
G|-5---------------------| 
D|-5--Until the end------| 
A|-3---------------------| 
E|-----------------------| 
 | 
 | 
e|-------------------------------------------------------------------------------------------------------| 
B|-------------------------------------------------------------------14-14-14-14-16-16-16-16-18-18-18-18-| 
G|-8-8-8-8-10-10-10-10-10-11-11-11-11-13-13-1313-1313-15-15-15-15-15-------------------------------------| 
D|-------------------------------------------------------------------------------------------------------| 
A|-------------------------------------------------------------------------------------------------------| 
E|-------------------------------------------------------------------------------------------------------| 


************************************ 

| /   slide up 
| \   slide down 
| h   hammer-on 
| p   pull-off 
| ~   vibrato 
| +   harmonic 
| x   Mute note 
| b   Bend 
| pb  Pre-bend 
| br  Bend release 
| pbr Pre-bend release 
| brb Bend release bend 

************************************ 
	  

Search Paypal
auto scroll beats size up size down change color hide chords drawings
tab show chords e-chords YouTube Clip e-chords hide all tabs e-chords go to top tab