Carly Rae Jepsen

home > Carly Rae Jepsen

Drive Tab

Carly Rae Jepsen

Difficulty: nolevelnolevel

by aman%5Fclaudino

tuner correct add songbook print version text version save to e-mail
chordsukulelecavacokeyboardtabbassdrumsharmonicsflute Guitar Pro
chords

Drive

  		Intro: 
 
-------------x-x---x-x---------------| 
-----------6-x-x-6-x-x---------------| 
--3-3------7-x-x-7-x-x-5-------------| 
--3-3-3-3--7-x-x-7-x-x-5-------------| 
--1-1-3-3--5-x-x-5-x-x-3-------------| 
------1-1----x-x---x-x---------------| 
 

VERSE (PALM MUTE) 
 
-----------------------------------------------------------------------------| 
-----------------------------------------------------------------------------| 
--3-----------------------------------5--------------------------------------| 
--3-----------------3-----------------5--------------------------------------| 
--1-1-1-1-1-1-1-1---3---------------- 3-3-3-3-3-3-3-3-3-3-3-3-3-3-3-3-3-3----| 
--------------------1-1-1-1-1-1-1-1------------------------------------------| 
 
CHORUS 
 
-------------x-x---x-x---------------| 
-----------6-x-x-6-x-x---------------| 
--3-3------7-x-x-7-x-x-5-------------| 
--3-3-3-3--7-x-x-7-x-x-5-------------| 
--1-1-3-3--5-x-x-5-x-x-3-------------| 
------1-1----x-x---x-x---------------| 
 
BRIDGE 
 
-------------x-x---x-x---------------| 
-------------x-x---x-x---------------| 
--3-3------7-x-x-7-x-x-5-------------| 
--3-3-3-3--7-x-x-7-x-x-5-------------| 
--1-1-3-3--5-x-x-5-x-x-3-------------| 
------1-1----x-x---x-x---------------| 
 

 
	  

Search Paypal
auto scroll beats size up size down change color hide chords drawings
tab show chords e-chords YouTube Clip e-chords hide all tabs e-chords go to top tab