Carcass

Incarnated Solvent Abuse

Carcass

tabs

by  RENEJUNIOR

save to print version add songbook text version e-mail correct tuner
chordsukulelecavacokeyboardtabbassdrumsharmonicaflute Guitar Pro
close

there isn't a video lesson for this song

chords

Incarnated Solvent Abuse

	  		
Intro 1 : 
G|--------------------------------------------|--------------------------------------------| 
D|--------------------------------------------|--------------------------------------------| 
A|--------------------------------------------|--------------------------------------------| 
E|--2--2--2--2--2--2--2--1--1--1--1--1--1--1--|--2--2--2--2--2--2--2-----------------------| 
B|--------------------------------------------|-----------------------4--4--4--4--4--4--4--| 

G|--------------------------------------------|---------------------------| 
D|--------------------------------------------|---------------------------| 
A|--------------------------------------------|---------------------------| 
E|--2--2--2--2--2--2--2--1--1--1--1--1--1--1--|--2--2--2--2--2--2--2------| 
B|--------------------------------------------|-----------------------4\--| 

Intro 2 - play the (x) notes only if you want to.. it's an addition 
G|---------------------------------------------------|--------------------------------------------------| 
D|---------------------------------------------------|--------------------------------------------------| 
A|-(5)-------(2)------(2)-----(5)-----(2)------(2)---|-(5)------(5)------(5)----(4)------(4)-----(4)----| 
E|---------------------------------------------------|--------------------------------------------------| 
B|-----0--0-----0--0-----0------0--0-----0--0-----0--|-----3--3-----3--3-----3-----2--2-----2--2-----2--| 

G|---------------------------------------------------|--------------------------------------| 
D|---------------------------------------------------|--------------------------------------| 
A|-(5)-------(2)------(2)-----(5)-----(2)------(2)---|--------------------------------------| 
E|---------------------------------------------------|--------------------------------------| 
B|-----0--0-----0--0-----0------0--0-----0--0-----0--|--3--3--3--3--3----2--2--2--2--2---5--| 

Slow Riff (x2) : 
G|---------------------------------------------|------------------------------------------------| 
D|---------------------------------------------|------------------------------------------------| 
A|---------------------------------------------|------------------------------------------------| 
E|------------------------------------------1--|------------------------------------------1-----| 
B|--0--2--1--0--2--1--0--1---0--2--1--0--2-----|--0--2--1--0--2--1--0--1---0--2--1--0--2-----2--| 

Verse (x2) : 
G|---------------------------------------------------|--------------------------------------------------| 
D|---------------------------------------------------|--------------------------------------------------| 
A|-(5)-------(2)------(2)-----(5)-----(2)------(2)---|-(5)------(5)------(5)----(4)------(4)-----(4)----| 
E|---------------------------------------------------|--------------------------------------------------| 
B|-----0--0-----0--0-----0------0--0-----0--0-----0--|-----3--3-----3--3-----3-----2--2-----2--2-----2--| 

G|---------------------------------------------------|--------------------------------------| 
D|---------------------------------------------------|--------------------------------------| 
A|-(5)-------(2)------(2)-----(5)-----(2)------(2)---|--------------------------------------| 
E|---------------------------------------------------|--------------------------------------| 
B|-----0--0-----0--0-----0------0--0-----0--0-----0--|--3--3--3--3--3----2--2--2--2--2---5--| 

Slow Riff : 
G|---------------------------------------------|------------------------------------------------| 
D|---------------------------------------------|------------------------------------------------| 
A|---------------------------------------------|------------------------------------------------| 
E|------------------------------------------1--|------------------------------------------1-----| 
B|--0--2--1--0--2--1--0--1---0--2--1--0--2-----|--0--2--1--0--2--1--0--1---0--2--1--0--2-----2--| 

G|---------------------------------------------| 
D|---------------------------------------------| 
A|---------------------------------------------| 
E|------------------------------------------1--| 
B|--0--2--1--0--2--1--0--1---0--2--1--0--2-----| 

G|----------------------------------------------------------------------------| 
D|----------------------------------------------------------------------------| 
A|----------------------------------------------------------------------------| 
E|------------------------------------------2------(2/10)--2-----(1/8)--------| 
B|--0--2--1--0--2--1--0--1---0--2--1--0--2------3~-------------1~-------1--3--| 

Verse : 
G|---------------------------------------------|------------------------------------------------| 
D|---------------------------------------------|------------------------------------------------| 
A|---------------------------------------------|------------------------------------------------| x2 
E|------------------------------------------1--|------------------------------------------1-----| 
B|--0--2--1--0--2--1--0--1---0--2--1--0--2-----|--0--2--1--0--2--1--0--1---0--2--1--0--2-----2--| 

Interlude (x4) : 
G|--------------------------------|--------------------------------| 
D|--------------------------------|--------------------------------| 
A|--------------------------------|-----------------------------5--| 
E|--------------------------5--7--|--------------------------5-----| 
B|--0--0--0--0--0--0--3--5--------|--0--0--0--0--0--0--3--5--------| 
                                   last time play this twice              
G|--------------------------------|-----------------------| 
D|--------------------------------|-----------------------| 
A|--------------------------------|-----------------------|  
E|--------------------------5--7--|-----------------------| 
B|--0--0--0--0--0--0--3--5--------|--0--0--0--0--0--0--1--| 

Solo (x2) : 
G|---------------------------------------------------|--------------------------------------------------| 
D|---------------------------------------------------|--------------------------------------------------| 
A|-(5)-------(2)------(2)-----(5)-----(2)------(2)---|-(5)------(5)------(5)----(4)------(4)-----(4)----| 
E|---------------------------------------------------|--------------------------------------------------| 
B|-----0--0-----0--0-----0------0--0-----0--0-----0--|-----3--3-----3--3-----3-----2--2-----2--2-----2--| 

G|---------------------------------------------------|--------------------------------------| 
D|---------------------------------------------------|--------------------------------------| 
A|-(5)-------(2)------(2)-----(5)-----(2)------(2)---|--------------------------------------| 
E|---------------------------------------------------|--------------------------------------| 
B|-----0--0-----0--0-----0------0--0-----0--0-----0--|--3--3--3--3--3----2--2--2--2--2---5--| 

Slow Riff : 
G|---------------------------------------------|------------------------------------------------| 
D|---------------------------------------------|------------------------------------------------| 
A|---------------------------------------------|------------------------------------------------| 
E|------------------------------------------1--|------------------------------------------1-----| 
B|--0--2--1--0--2--1--0--1---0--2--1--0--2-----|--0--2--1--0--2--1--0--1---0--2--1--0--2-----2--| 

G|---------------------------------------------| 
D|---------------------------------------------| 
A|---------------------------------------------| 
E|------------------------------------------1--| 
B|--0--2--1--0--2--1--0--1---0--2--1--0--2-----| 

G|----------------------------------------------------------------------------| 
D|----------------------------------------------------------------------------| 
A|----------------------------------------------------------------------------| 
E|------------------------------------------2------(2/10)--2-----(1/8)--------| 
B|--0--2--1--0--2--1--0--1---0--2--1--0--2------3~-------------1~-------1--3--| 

Verse : 
G|---------------------------------------------|------------------------------------------------| 
D|---------------------------------------------|------------------------------------------------| 
A|---------------------------------------------|------------------------------------------------| x2 
E|------------------------------------------1--|------------------------------------------1-----| 
B|--0--2--1--0--2--1--0--1---0--2--1--0--2-----|--0--2--1--0--2--1--0--1---0--2--1--0--2-----2--| 

Interlude (x4) : 
G|--------------------------------|--------------------------------| 
D|--------------------------------|--------------------------------| 
A|--------------------------------|-----------------------------5--| 
E|--------------------------5--7--|--------------------------5-----| 
B|--0--0--0--0--0--0--3--5--------|--0--0--0--0--0--0--3--5--------| 
                                   last time play this three times             
G|--------------------------------|-----------------------| 
D|--------------------------------|-----------------------| 
A|--------------------------------|-----------------------|  
E|--------------------------5--7--|-----------------------| 
B|--0--0--0--0--0--0--3--5--------|--0--0--0--0--0--0--1--| 

Solo : 
G|-----------------------------------------------------------------| 
D|-----------------------------------------------------------------| slow 
A|----------10--10/----------9--10--9----------8---8---------7--8--| 
E|--7---7-------------6---6-------------5---5---------4---4--------| 
B|-----------------------------------------------------------------| 

G|---------------------------------------------------------------| 
D|---------------------------------------------------------------| 
A|-------10*-----9-9-9-9-10-10-9-9-------8*-----7-7-7-7-8-8-8-8--| faster 
E|--7*--------6*---------------------5*-----4*-------------------| 
B|---------------------------------------------------------------| 

Break : 
G|---------|----------| 
D|-3times--|----------| x2 
A|---------|----------| 
E|---------|--1~---5--| 
B|--0~-----|----------| 

Breakdown : 
G|----------------------------------------| 
D|----------------------------------------| x8 
A|--3--2--0-------------------------------| 
E|-----------3--2--0--------/8--7---------| 
B|--------------------0--0----------0--0--| 

G|-----------------------| 
D|-----------------------|  
A|--3--2--0--------------| 
E|-----------3--2--0-----| 
B|--------------------0--| 

Ending : 
G|--------------------------------------------|--------------------------------------------| 
D|--------------------------------------------|--------------------------------------------| 
A|--------------------------------------------|--------------------------------------------| 
E|--2--2--2--2--2--2--2--1--1--1--1--1--1--1--|--2--2--2--2--2--2--2-----------------------| 
B|--------------------------------------------|-----------------------4--4--4--4--4--4--4--| 

G|--------------------------------------------|--------------------------| 
D|--------------------------------------------|--------------------------| 
A|--------------------------------------------|--------------------------| 
E|--2--2--2--2--2--2--2--1--1--1--1--1--1--1--|--2--2--2--2--2--2--2-----| 
B|--------------------------------------------|-----------------------4--| 
		  

See also:

tabs Marilyn Manson - Disposable Teens tabs Pantera - Cemetary Gates tabs Slipknot - Duality tabs Slipknot - Vermilion Pt.2 (versão Correta) tabs Alice Cooper - Poison tabs Avenged Sevenfold - Buried Alive
e-chords

Other versions:

tabs Carcass - Incarnated Solvent Abuse
auto scroll beats size up size down change color hide chords drawings
tab show chords e-chords YouTube Clip e-chords hide all tabs e-chords go to top tab

share