Carcass

Black Star

Carcass

tabs

save to print version add songbook text version e-mail correct tuner
chordsukulelecavacokeyboardtabbassdrumsharmonicaflute Guitar Pro
close

there isn't a video lesson for this song

chords

Black Star

	  		(Tune down 2.5 steps to B) 
 
Thanks to Royce and jpm again. 
|---------------------|---|---------------------|-------------| 
|---------------------|---|---------------------|-------------| 
|---------------------|---|---------------------|-------------| 
|---------------------|-|---------------------|-------------| 
|-7-6-5-----------2---|---|-7-6-5-----------5---|---5-8---7---| 
|-------7-6-0-3-5-0---|---|-------7-6-0-3-5-3---|---3-6---5---| 
 
|--------------------------------------------|---| 
|--------------------------------------------|---| 
|------------------5-------------------------|---| 
|----------------4---4-----------------------|-| 
|-2-----2-2----5-------2-----2-2-----2---2-2-|---| 
|-0-----0-0------------0-----0-0-----0---0-0-|---| 
 
|------------------------------| 
|------------------------------| 
|------------------8-----------| 
|----------------7---7---------| 
|-5-----5-5----8-------5-----5-| 
|-3-----3-3------------3-----3-| 
 
|-------------------------------|-------------------------------| 
|-------------------------------|-------------------------------| 
|----------s--------------------|----------s--------------------| 
|---------9\7-------------------|---------9\7----h-h---h-p------| 
|-2---2-2-7\5----h-h---h-h------|-2---2-2-7\5---0-2-5-0-1-0-----| 
|-0---0-0-------5-6-7-3-4-5-3---|-0---0-0-------------------3---| 
 
|--------------------------------|---|---|---------------------------------| 
|--------------------------------|---|---|---------------------------------| 
|--------------------------------|---|---|---------------------------------| 
|---------7---9--------12-11-----|-|-|-----------5-----5-7-----7-9-----| 
|---------5---7--------10--9-----|---|---|-5-7-----7-3-3-3-3-5-5-5-5-7-7-7-| 
|-0---0-0----------0-0-------0-0-|---|---|-3-5-5-5-5-----------------------| 
 
|--------------------------------|---|---|---------------------------------| 
|--------------------------------|---|---|---------------------------------| 
|--------------------------------|---|---|---------------------------------| 
|---gtr.1-4---5---------9--7-----|-|-|-----------5-----5-7-----7-9-----| 
|---gtr.2-5---7--------10--9-----|---|---|-5-7-----7-3-3-3-3-5-5-5-5-7-7-7-| 
|-0---0-0----------0-0-------0-0-|---|---|-3-5-5-5-5-----------------------| 
 
Guitar solo: 
|---------------------------------p----/full\-p---| 
|---h--p-------------/full------17-15-17---(17)15-| 
|-11-12-11----14----14----------------------------| 
|----------14-------------------------------------| 
|-------------------------------------------------| 
|-------------------------------------------------| 
                                  p  p  h  p 
|-------------------------------17-15-14-15-14----| 
|---h--p-------------/full---------------------15-| 
|-11-12-11----14----14----------------------------| 
|----------14-------------------------------------| 
|-------------------------------------------------| 
|-------------------------------------------------| 
 
                                a.h. 
|-------------------------------------------------| 
|---h--p-------------/full-------17\--------------| 
|-11-12-11----14----14----------------------------| 
|----------14-------------------------------------| 
|-------------------------------------------------| 
|-------------------------------------------------| 
 
|-------------------------------------------------| 
|---s-----------s-----------s-----------s---------| 
|-12-14-14-14-14-12-12-12-12-14-14-14-14-12-12-12-| 
|-------------------------------------------------| 
|-------------------------------------------------| 
|-------------------------------------------------| 
 
|--/full-------/full-------/\-------/full---------| 
|-15----------15----------15-12----15-------------| 
|-------------------------------14----------------| 
|-------------------------------------------------| 
|-------------------------------------------------| 
|-------------------------------------------------| 
 
   h  p        h  p        h  p 
|-12-15-12----12-17-12----12-15-12----12----------| 
|----------15----------15----------15-------------| 
|-------------------------------------------------| 
|-------------------------------------------------| 
|-------------------------------------------------| 
|-------------------------------------------------| 
 
  h  p 
|121512----12-------------------------------------| 
|-------15----15-12-------------------------------| 
|-------------------14-13-12----------------------| 
|----------------------------14-13-12-------------| 
|-------------------------------------14-13-12----| 
|----------------------------------------------15-| 
 
                                       /full    p 
|-------------------------------------15------1512| 
|-------------------------------12-15-------------| 
|-------------------------12-14-------------------| 
|----------------12-13-14-------------------------| 
|-------12-13-14----------------------------------| 
|-12-15-------------------------------------------| 
 
|--/full------- 
|-15----------- 
|-------------- 
|-------------- 
|-------------- 
|-------------- 
 
_______________________________________________________ 
Contribuição: Leon Felipe Wurr([email protected]) 
		  

Full key step upFull key step up
Half key step upHalf key step up
Half key step downHalf key step down
Full key step downFull key step down
hide glossary

See also:

tabs Marilyn Manson - Disposable Teens tabs Pantera - Cemetary Gates tabs Slipknot - Duality tabs Slipknot - Vermilion Pt.2 (versão Correta) tabs Alice Cooper - Poison tabs Avenged Sevenfold - Buried Alive
e-chords

Other versions:

tabs Carcass - Black Star tabs Yngwie Malmsteen - Black Star tabs Yngwie Malmsteen - Black Star (Intro) tabs Yngwie Malmsteen - Black star(ver. 2)
auto scroll beats size up size down change color hide chords drawings
tab show chords e-chords YouTube Clip e-chords hide all tabs e-chords go to top tab

share