Cake

Mahnahmanah

Cake

tabs

by  UWISHUKNEW

save to print version add songbook text version e-mail correct tuner
chordsukulelecavacokeyboardtabbassdrumsharmonicaflute Guitar Pro
close

there isn't a video lesson for this song

chords

Mahnahmanah

	  		This is the part after they do the Mahnahmanah part 
Enjoy!!!! 
X=Hold out 
    Riff 1 
e----------------/ 
B----------------/ 
G----------------/ 
D--0---3X--5-2---/ 
A---------------3/ 
E----------------/ 
     Riff 2 
e----------------/ 
B----------------/ 
G----------------/ 
D--0---3-5--2----/ 
A----------------/ 
E----------------/ 
      Riff 3 
e----------------------------------------/ 
B----------------------------------------/ 
G----------------------------------------/ 
D--0---3X--5-2---0-2--0-2----------------/ 
A-------------3------3----3-0---0-0-0-0-0/ 
E-----------------------------3----------/ 

It's my first tab so don't get mad about mess-ups. 
THXS 
		  

See also:

tabs Santana - Europa tabs Queen - Love of my Life tabs Dire Straits - Sultans of Swing (ao vivo BBC) tabs Eric Clapton - Layla tabs Deep Purple - Deep Purple - Smoke On The Water tabs White Stripes - the seven nation army
e-chords

Other versions:

tabs Cake - Mahnahmanah
auto scroll beats size up size down change color hide chords drawings
tab show chords e-chords YouTube Clip e-chords hide all tabs e-chords go to top tab

share