Cake

Stickshifts And Safetybelts

Cake

tabs

save to print version add songbook text version e-mail correct tuner
chordsukulelecavacokeyboardtabbassdrumsharmonicaflute Guitar Pro
close

there isn't a video lesson for this song

chords

Stickshifts And Safetybelts

	  		Stickshifts and Safetybelts by Cake 
 
 
p: pull off 
h: hammer 
(Put distortion halfway on) 
 
 
Intro: 
------------------------------------------------------------------------- 
------------------------------------------------------------------------- 
------------------------------------------------------------------------- 
---------------------2/4-4h5-4h5-4p2----------------------2-2------------ 
------2------2-0-2h4-----------------4------2------2-0-2h4----4p2-------- 
-0-2h4--0-2h4--------------------------0-2h4--0-2h4---------------4p2---- 
 
------------------------------------------------------------------------- 
------------------------------------------------------------------------- 
--------------------9---------------------------------------------------- 
---------2-4/7-9-11------------------------------------------------------ 
------2h4---------------------------------------------------------------- 
-0-2h4------------------------------------------------------------------- 
 
Verses: 
------------------------------------------------------------------------- 
------------------------------------------------------------------------- 
-------4--2-------------------------------------------------------------- 
----4--4--2--2----------------------------------------------------------- 
----4--2--0--2----------------------------------------------------------- 
----2--------0----------------------------------------------------------- 
 

		  

See also:

tabs Santana - Europa tabs Queen - Love of my Life tabs Dire Straits - Sultans of Swing (ao vivo BBC) tabs Eric Clapton - Layla tabs Deep Purple - Deep Purple - Smoke On The Water tabs White Stripes - the seven nation army
e-chords

Other versions:

tabs Cake - Stickshifts And Safetybelts tabs Cake - Stickshifts And Safetybelts (ver. 2)
auto scroll beats size up size down change color hide chords drawings
tab show chords e-chords YouTube Clip e-chords hide all tabs e-chords go to top tab

share