Cake

Jolene

Cake

tabs Beginner beginner

save to print version add songbook text version e-mail correct tuner
chordsukulelecavacokeyboardtabbassdrumsharmonicaflute Guitar Pro
close

there isn't a video lesson for this song

chords

Jolene

	  		Cake ? Jolene  (Tuned Down 1/2 Step) 
 
This is played throughout the song by guitar 1 
   Am           F             C       G            Am7 
eb|-5-----------------------|-8-----------------------5---------| 
Bb|-5-----------6-6--6------|-8---------12------------5---------| 
Gb|-5--x--x--x--5-5--5-x-x-x|-9--x-x-x--12-12-12-x-x--5---------| 
Db|-7--x--x--x--7-7----x-x-x|-10-x-x-x--12-12-12-x-x--5---------| 
Ab|-7--x--x--x--8-8----x-x-x|-10-x-x-x--10-10-10-x-x------------| 
Eb|-5-----------------------|-8---------------------------------| 
 
 
Guitar 2 plays this over it: 
 
eb|--------------------------------|----------------------------| 
Bb|---------8-8-x-x-8-8-8-8-x-x-8-8|-8-8-x-x-8-8-8--------------| 
Gb|---------5-5-x-x-5-5-5-5-5-5----|-5-5-5-5-5-5-x-7/8-7-7-5-5--| 
Db|-7-7-7-7------------------------|----------------------------| 
Ab|--------------------------------|----------------------------| 
Eb|--------------------------------|----------------------------| 
 
 
Chorus: 
Guitar 2 plays this while Guitar 1 plays the main riff. 
eb|-------------------------|-----------------------------------| 
Bb|------8---8---8---8---8--|---x-x--7/8--7-7-------------------| 
Gb|---|5---5---5---5---5---||---x-x--7/8--7-7\5-5---------------| 
Db|-7-|____________________||-----------------------------------| 
Ab|------------x3-----------|-----------------------------------| 
Eb|-------------------------|-----------------------------------| 
		  

Full key step upFull key step up
Half key step upHalf key step up
Half key step downHalf key step down
Full key step downFull key step down
hide glossary

See also:

tabs Santana - Europa tabs Queen - Love of my Life tabs Dire Straits - Sultans of Swing (ao vivo BBC) tabs Eric Clapton - Layla tabs Deep Purple - Deep Purple - Smoke On The Water tabs White Stripes - the seven nation army
e-chords

Other versions:

tabs Cake - Jolene tabs Astrid Smeplass - Jolene tabs Dolly Parton - Jolene (intro) tabs The White Stripes - Jolene (ver. 1) tabs The White Stripes - Jolene (ver. 2)
auto scroll beats size up size down change color hide chords drawings
tab show chords e-chords YouTube Clip e-chords hide all tabs e-chords go to top tab

share