Busted

Everything I Know

Busted

tabs Advanced advanced

by  SPOOKYZOMBIE

save to print version add songbook text version e-mail correct tuner
chordsukulelecavacokeyboardtabbassdrumsharmonicaflute Guitar Pro
close

there isn't a video lesson for this song

chords

Everything I Know

	  		EVERYTHING I KNOW 
 
(*)=palm mute 
(~)=let it ring 
(X)=muted strings 
(H)=hammer on 
(P)=pull off 
(/)=slide 
 
verse 1: 
 
e--10-10-10-x-10-10-10-10-x-10-10-10-10--10-10-10-x-10-10-10-10-x---| 
b--10-10-10-x-10-10-10-10-x-10-10-10-10--10-10-10-x-10-10-10-10-x---| 
g---0--0--0-x--0--0--0--0-x--0--0--0--0---0--0--0-x--0--0--0--0-x---| 
d---9--9--9-x--9--9--9--9-x--9--9--9--9---9--9--9-x--9--9--9--9-x---| 
a--10-10-10-x-10-10-10-10-x-10-10-10-10---9--9--9-x--9--9--9--9-x---| 
E-------------------------------------------------------------------| 
 
e--10-10-10-10-3-3-3-x-3-3-3-3-x-3-3-3-3-3-3-3-x-3-3-3-3-x-3-3-x-x---| 
b--10-10-10-10-3-3-3-x-3-3-3-3-x-3-3-3-3-3-3-3-x-3-3-3-3-x-3-3-x-x---| 
g---0--0--0--0-0-0-0-x-0-0-0-0-x-0-0-0-0-0-0-0-x-0-0-0-0-x-0-0-x-x---| 
d---9--9--9--9-2-2-2-x-2-2-2-2-x-2-2-2-2-2-2-2-x-2-2-2-2-x-2-2-x-x---| 
a---9--9--9--9-3-3-3-x-3-3-3-3-x-3-3-3-3-3-3-3-x-3-3-3-3-x-3-3-x-x---| 
E--------------------------------------------------------------------| 
 
 
pre Chorus: 
 
e--3-3-3-x-3-3-3-3-x-3-3-3-3-----------------------------| 
b--3-3-3-x-3-3-3-3-x-3-3-3-3-7-7-7-x-7-7-7-7-x-7-7-7-7---| 
g--0-0-0-x-0-0-0-0-x-0-0-0-0-7-7-7-x-7-7-7-7-x-7-7-7-7---| 
d--2-2-2-x-2-2-2-2-x-2-2-2-2-7-7-7-x-7-7-7-7-x-7-7-7-7---| 
a----------------------------5-5-5-x-5-5-5-5-x-5-5-5-5---| 
E--------------------------------------------------------| 
 
e--3-3-3-x-3-3-3-3-x-3-3-3-3--3-3-3-x-3-3-x------------------------| 
b--3-3-3-x-3-3-3-3-x-3-3-3-3--3-3-3-x-3-3-x--7----x------7-----x---| 
g--0-0-0-x-0-0-0-0-x-0-0-0-0--0-0-0-x-0-0-x--7----x------7-----x---| 
d--2-2-2-x-2-2-2-2-x-2-2-2-2--2-2-2-x-2-2-x--7----x------7-----x---| x2 
a--3-3-3-x-3-3-3-3-x-3-3-3-3--3-3-3-x-3-3-x--5----x------5-----x---| 
E------------------------------------------------------------------| 
                                          ========================= 
on the 2nd time dont play the underlined bit! 
 
Chorus: 
 
e-3-3-3-3-3-3-3-3-3-------------------2-2-2-2-2-2-2-2-2-3-3-3-3-3-3-3-3-3-| 
b-3-3-3-3-3-3-3-3-3-7-7-7-7-7-7-7-7-7-3-3-3-3-3-3-3-3-3-3-3-3-3-3-3-3-3-3-| 
g-0-0-0-0-0-0-0-0-0-7-7-7-7-7-7-7-7-7-2-2-2-2-2-2-2-2-2-0-0-0-0-0-0-0-0-0-| 
d-0-0-0-0-0-0-0-0-0-7-7-7-7-7-7-7-7-7-4-4-4-4-4-4-4-4-4-2-2-2-2-2-2-2-2-2-|x2 
a-2-2-2-2-2-2-2-2-2-5-5-5-5-5-5-5-5-5-2-2-2-2-2-2-2-2-2-3-3-3-3-3-3-3-3-3-| 
E-3-3-3-3-3-3-3-3-3-------------------------------------------------------| 
 
then the end bit of the Chorus. 
 
e--------------------------------------3-------------------------------3-~~-| 
b---------------3----------------------3---3------------------------3--3-~~-| 
g------0-----------0---------------0------------0----------0-----------0-~~-| 
d----2-------0--------0--------2-------------------2-----2------0------2-~~-| 
a--0------2----------------3---------------------------0------2--------3-~~-| 
E---------------------------------------------------------------------------| 
 
then play this before you play verse 2. 
 
e-10-10-10-x-10-10-10-10-x-10-10-10-10-10-10-10-x-10-10-10-10-x-10-10-10-10-| 
b-10-10-10-x-10-10-10-10-x-10-10-10-10-10-10-10-x-10-10-10-10-x-10-10-10-10-| 
g--0--0--0-x--0--0--0--0-x--0--0--0--0--0--0--0-x--0--0--0--0-x--0--0--0--0-| 
d--9--9--9-x--9--9--9--9-x--9--9--9--9--9--9--9-x--9--9--9--9-x--9--9--9--9-| 
a-10-10-10-x-10-10-10-10-x-10-10-10-10-10-10-10-x-10-10-10-10-x-10-10-10-10-| 
E---------------------------------------------------------------------------| 
 
verse 2 
Chorus 
 
bridge: 
 
play the bit at the end of the Chorus x2. 
 
Chorus x2 
 
outro: 
 
e-------------------------------------------3---| 
b--------1-------------3--------------------3---| 
g--------0---------------------0---------0------| 
d-----2------------0------------------2---------| 
a--0----------2------------2-------3------------| 
E-----------------------------------------------| 
 
e----------------------------------3-~~~~~~~~---| 
b---------1--------------3---------3-~~~~~~~~---| 
g---------0-------------------0----0-~~~~~~~~---| 
d------2-------------0-------------2-~~~~~~~~---| 
a---0----------2-------------------3-~~~~~~~~---| 
E-----------------------------------------------| 

		  

See also:

tabs Take That - Patience (intro) tabs John Lennon - Imagine (ver. 2) tabs Paul McCartney - Little Willow tabs Genesis - Entangled tabs Destiny's Child - Emotions tabs James Blunt - Same Mistake
e-chords

Other versions:

tabs Busted - Everything I Know
auto scroll beats size up size down change color hide chords drawings
tab show chords e-chords YouTube Clip e-chords hide all tabs e-chords go to top tab

share