Busted

Dawson's Geek

Busted

tabs

by  SPOOKYZOMBIE

save to print version add songbook text version e-mail correct tuner
chordsukulelecavacokeyboardtabbassdrumsharmonicaflute Guitar Pro
close

there isn't a video lesson for this song

chords

Dawson's Geek

Year: 2002 - Album: Busted [2002]

	  		Dawson's Geek 
 
(*)=palm mute 
(~)=let it ring 
(X)=muted strings 
(H)=hammer on 
(P)=pull off 
(/)=slide 
 
 
 
intro: 
 
e-----3---2-----0----0---0-2-0---------3---2-----0----0---0-2-0-----| 
b---3-------3------3---3-------3-----3-------3------3---3-------3---| 
g-0-----0-----0--------------------0-----0-----0--------------------| 
d-------------------------------------------------------------------| 
a-------------------------------------------------------------------| 
E-------------------------------------------------------------------| 
 
verse 1: 
 
play intro. 
 
pre Chorus: 
 
e------------------------------------| 
b------------------------------------| 
g-----9-9-----7-7------5-5-----7-7---| 
d-9-9-9-9-7-7-7-7--5-5-5-5-7-7-7-7---| x2 
a-7-7-----5-5------3-3-----5-5-------| 
E-*-*-----*-*------*-*-----*-*-------| 
                   ================ 
 
on the 2nd time were i'v underlined skip it and play this instead 
 
e-----------------------------------| 
b-----------------------------------| 
g-5-5-5-5-5-5-5-5-7-7-7-7-7-7-7-7---| 
d-5-5-5-5-5-5-5-5-7-7-7-7-7-7-7-7---| 
a-3-3-3-3-3-3-3-3-5-5-5-5-5-5-5-5---| 
E-----------------------------------| 
 
Chorus: 
 
e-3-3-3-3-3-3-3-3-3-3-3-3-3-3-3-3-3-3-3-3-3-3-3-3---| 
b-3-3-3-3-3-3-3-3-3-3-3-3-3-3-3-3-3-3-3-3-3-3-3-3---| 
g-0-0-0-0-0-0-0-0-0-0-0-0-0-0-0-0-0-0-0-0-0-0-0-0---| 
d-0-0-0-0-0-0-2-2-2-0-0-0-0-0-0-0-0-0-2-2-2-0-0-0---| 
a-2-2-2-0-0-0-3-3-3-2-2-2-2-2-2-0-0-0-3-3-3-2-2-2---| 
E-3-3-3-2-2-2-------------3-3-3-2-2-2---------------| 
  ================================================ 
 
   self  -    -    -    - 
e--2-2-2-2-----3-3-3-3-3-3---| 
b--3-3-3-3-----3-3-3-3-3-3---| 
g--2-2-2-2-----0-0-0-0-0-0---| 
d--0-0-0-0-----2-2-2-2-2-2---| 
a--------------3-3-3-3-3-3---| 
E----------------------------| 
 
 
repeat the underlined bit then play this 
 
  dawson's, dawson's geek 
e--3-3-3-3-3--------3-3-3-3-3-3---| 
b--3-3-3-3-3--------3-3-3-3-3-3---| 
g--0-0-0-0-0--------0-0-0-0-0-0---| 
d--2-2-2-2-2--------0-0-0-0-0-0---| 
a---------------------------------| 
E---------------------------------| 
 
 
then play this until you get into the 2nd verse 
 
e--3---| 
b--3---| 
g--0---| 
d--2---| 
a--3---| 
E------| 
 
verse 2 
Chorus 2 
 
bridge: 
 
e-0-0-------------0-0-------------0-0-------------0-0-7-7-----------| 
b-----3-3-0-0-3-3-----3-3-0-0-3-3-----3-3-----3-3-------------3-3---| 
g-----------------------------------------2-2-------------2-2-------| 
d-------------------------------------------------------------------| 
a-------------------------------------------------------------------| 
E-------------------------------------------------------------------| 
 
e----------------------------------------------------------------------| 
b--1-1-0-0-----0-0-1-1-0-0-----0-0-------------------------------------| 
g----------0-0-------------0-0-------7-7-7-7-7-7-7-7-7-7-7-7-7-7-7-7---| 
d------------------------------------7-7-7-7-7-7-7-7-7-7-7-7-7-7-7-7---| 
a------------------------------------5-5-5-5-5-5-5-5-5-5-5-5-5-5-5-5---| 
E----------------------------------------------------------------------| 
 
 
solo bit after the bridge 
 
e-10-10----10----10--------------10----10----10------------| 
b-------12----12----12-10-----------12----12----12-10------| 
g-------------------------12--------------------------12---| 
d----------------------------------------------------------| 
a----------------------------------------------------------| 
E----------------------------------------------------------| 
 
 
e---------------------------| 
b--10-10----10--------------| 
g--------12----12-11-9------| 
d----------------------12---| 
a---------------------------| 
E---------------------------| 
 
 
Chorus x2 
 
end song with this 
 
e---3-~~~~~~~---| 
b---3-~~~~~~~---| 
g---0-~~~~~~~---| 
d---0-~~~~~~~---| 
a---2-~~~~~~~---| 
E---3-~~~~~~~---| 

		  

See also:

tabs Take That - Patience (intro) tabs John Lennon - Imagine (ver. 2) tabs Paul McCartney - Little Willow tabs Genesis - Entangled tabs Destiny's Child - Emotions tabs James Blunt - Same Mistake
e-chords

Other versions:

tabs Busted - Dawson's Geek
auto scroll beats size up size down change color hide chords drawings
tab show chords e-chords YouTube Clip e-chords hide all tabs e-chords go to top tab

share