Box Car Racer

home > Box Car Racer

There Is Tab

Box Car Racer

Difficulty: nolevelnolevel

tuner correct add songbook print version text version save to e-mail
chordsukulelecavacokeyboardtabbassdrummharmonicsflute Guitar Pro
chords

There Is

  		Standard Tuning 
low to high - EADGBE

ok this is a good acoustic sort of song and at the interlude
it might have 3 guitars but I have made an arrangement for 2
that sounds just fine. so hope you enjoy another perfect tab!

Intro:	clean acoustic
Guitar1
E|-----------------------------------|
B|-----------------------------------|
G|-8-88-88-88-8888-6-66-66-66-6666---|
D|-X-XX-XX-XX-XXXX-X-XX-XX-XX-XXXX---| 
A|-6-66-66-66-6666-4-44-44-44-4444---|
E|-----------------------------------|
Guitar2                                
E|-----------------------------------|
B|-----------------------------------|
G|-4-44-44-44-4444-4-44-44-44-4444---|
D|-X-XX-XX-XX-XXXX-X-XX-XX-XX-XXXX---| 
A|-2-22-22-22-2222-2-22-22-22-2222---|
E|-----------------------------------|
Guitar1                                X2
E|-----------------------------------|
B|-----------------------------------|
G|-4-44-44-44-4444-6-66-66-----------|
D|-X-XX-XX-XX-XXXX-X-XX-XX-8-88-88---| 
A|-2-22-22-22-2222-4-44-44-X-XX-XX---|
E|-------------------------6-66-66---|
Guitar2
E|-----------------------------------|
B|-----------------------------------|
G|-4-44-44-44-4444-4-44-44-44-4444---|
D|-X-XX-XX-XX-XXXX-X-XX-XX-XX-XXXX---| 
A|-2-22-22-22-2222-2-22-22-22-2222---|
E|-----------------------------------|

Verse:
Guitar1
e|---------------------------------|
B|---------------------------------|
G|---------------------------------|
D|-4-44-44-44-4444-4-44-44-44-4444-|
A|-2-22-22-22-2222-1-11-11-11-1111-|
E|---------------------------------|
Guitar2
E|---------------------------------|
B|---------------------------------|
G|-4-44-44-44-4444-4-44-44-44-4444-|
D|-X-XX-XX-XX-XXXX-X-XX-XX-XX-XXXX-| 
A|-2-22-22-22-2222-2-22-22-22-2222-|
E|---------------------------------|                                        



Guitar1
e|---------------------------------|
B|---------------------------------|
G|---------------------------------|
D|---------------------------------|
A|-6-66-66-66-6666-2-22-22-22-2222-|
E|-4-44-44-44-4444-0-00-00-00-0000-|
Guitar2
E|---------------------------------|
B|---------------------------------|
G|-4-44-44-44-4444-4-44-44-44-4444-|
D|-X-XX-XX-XX-XXXX-X-XX-XX-XX-XXXX-| 
A|-2-22-22-22-2222-2-22-22-22-2222-|
E|---------------------------------|

Then you play the Intro again

Then play the Verse again

Then this part with the verse to make the chorus:
Chorus
E|---------------------------------|
B|-0---0-2-0---0---0-2-0-----------|
G|---4-----------4-----------------|
D|---------------------------------| 
A|---------------------------------|
E|---------------------------------|

Then play the Intro again

Then the verse again

Then the chorus

Then play this: 
Interlude:
Gutiar1
E|---------------------------------|
B|---------------------------------|
G|-8-88-88-88-8888-9-99-99-99-9999-|
D|-X-XX-XX-XX-XXXX-X-XX-XX-XX-XXXX-| 
A|-6-66-66-66-6666-7-77-77-77-7777-|
E|-----------------0-00-00-00-0000-|
Guitar2                               X2
E|---------------------------------|
B|---------------------------------|
G|-4-44-44-44-4444-4-44-44-44-4444-|
D|-X-XX-XX-XX-XXXX-X-XX-XX-XX-XXXX-| 
A|-2-22-22-22-2222-2-22-22-22-2222-|
E|---------------------------------|
Guitar1
E|---------------------------------|
B|---------------------------------|
G|-----------------9-99-99-99-9999-|
D|-6-66-66-66-6666-X-XX-XX-XX-XXXX-| 
A|-X-XX-XX-XX-XXXX-7-77-77-77-7777-|
E|-4-44-44-44-4444-0-00-00-00-0000-|
Guitar2
E|---------------------------------|
B|---------------------------------|
G|-4-44-44-44-4444-4-44-44-44-4444-|
D|-X-XX-XX-XX-XXXX-X-XX-XX-XX-XXXX-| 
A|-2-22-22-22-2222-2-22-22-22-2222-|
E|---------------------------------|
Guitar1
E|---------------------------------|
B|---------------------------------|
G|-8-88-88-88-8888-6-66-66-66-6666-|
D|-X-XX-XX-XX-XXXX-X-XX-XX-XX-XXXX-| 
A|-6-66-66-66-6666-4-44-44-44-4444-|
E|---------------------------------|
Guitar2
E|---------------------------------|
B|---------------------------------|
G|-4-44-44-44-4444-----------------|
D|-X-XX-XX-XX-XXXX-4-44-44-44-4444-| 
A|-2-22-22-22-2222-X-XX-XX-XX-XXXX-|
E|-----------------2-22-22-22-2222-|

Then you play the verse part without drums then they come in
and you end playing this part WITH THE CHORUS:
E|---------------------------------|
B|---------------------------------|
G|-8-88-88-88-8888-6-66-66-66-6666-|
D|-X-XX-XX-XX-XXXX-X-XX-XX-XX-XXXX-| 
A|-6-66-66-66-6666-4-44-44-44-4444-|
E|---------------------------------|

then end on this chord:
E|---------------------------------|
B|---------------------------------|
G|-4~~~~~~~~~~~~~~~~~~~~~~~--------|
D|-X-------------------------------| 
A|-2~~~~~~~~~~~~~~~~~~~~~~~--------|
E|---------------------------------|


Thank you, so very, very much
	  

Search Paypal
auto scroll beats size up size down change color hide chords drawings
tab show chords e-chords YouTube Clip e-chords hide all tabs e-chords go to top tab