Bonobo

home > Bonobo

Black Sands Tab

Bonobo

Difficulty: nolevelnolevel

by aman%5Fclaudino

tuner correct add songbook print version text version save to e-mail
chordsukulelecavacokeyboardtabbassdrumsharmonicsflute Guitar Pro
chords

Black Sands

  		------------------------------------------------------------------------------- 
                             BLACK SANDS - Bonobo 
------------------------------------------------------------------------------- 
Tabbed by: Sethtmf 

I've tabbed all the Guitar parts throughout the tune plus the main Clarinet melody. 


Tuning: DADGBe CAPO ON THIRD FRET 

e|-----0-----0-----0-----0-h1-------0-----0-----0-----0-h1-------------------|   
B|---1-----1-----1-----1----------1-----1-----1-----1------------------------| 
G|---------------------------------------------------------------------------| 
D|---------------------------------------------------------------------------| 
A|-0-----0-----0-----0----------0-----0-----0-----0--------------------------| 
D|---------------------------------------------------------------------------| 
                                                                                   Intro Guitar No.1 (Riff 1) 
e|-----0-----0-----0-----0-h1-------0-----0-----0-----0-h1-------------------| 
B|---1-----1-----1-----1----------1-----1-----1-----1------------------------| 
G|---------------------------------------------------------------------------| 
D|-------0----------------------------0--------------------------------------| 
A|---------------------------------------------------------------------------| 
D|-0-----------0-----0----------0-----------0-----0--------------------------| 

e|---------------------------------------------------------------------------| 
B|-----5---7---5-------5---7---5----------5---7---5-------5---7---5----------| 
G|---7---------------7------------------7---------------7--------------------|     Intro Guitar No.2 (Riff 2) 
D|-7-----7---7-----7-----7---7--------7-----7---7-----7-----7---7------------| (First on beat 2, Then on beat 1) 
A|---------------------------------------------------------------------------| 
D|---------------------------------------------------------------------------| 

e|---0-0---0-0---0-0---0-1----0-0---0-0---0-0---0-1--------------------------| 
B|---1-1---1-1---1-1---1-1----0-0---0-0---0-0---0-0--------------------------| 
G|---------------------------------------------------------------------------|  X2 
D|--------------------------2-----2-----2-----2------------------------------| 
A|-0-----0-----0-----0-------------------------------------------------------| 
D|---------------------------------------------------------------------------| 

e|---0-0---0-0---0-0---0-1----0-0---0-0---0-0---0-0--------------------------| 
B|---1-1---1-1---1-1---1-1----0-0---0-0---0-0---0-0--------------------------| 
G|---------------------------------------------------------------------------| 
D|--------------------------2-----2-----2-----2------------------------------|    Melody Backing No.1 (Riff 3) 
A|-0-----0-----0-----0-------------------------------------------------------| 
D|---------------------------------------------------------------------------| 

e|---0-0---0-0---0-0---0-1----0-0---0-0---0-0---0-1--------------------------| 
B|---0-0---0-0---0-0---0-0----1-1---1-1---1-1---1-1--------------------------| 
G|---------------------------------------------------------------------------| 
D|-2-----2-----2-----2-------------------------------------------------------| 
A|--------------------------0-----0-----0-----0------------------------------| 
D|---------------------------------------------------------------------------| 

e|---------------------------------------------------------------------------| 
B|--5---6-5-------------5---6-5-----------5----------------------------------| 
G|----------4---5---------------4---4---7------------------------------------|   Main Clarinet Melody (Riff 4) 
D|----------------7-------------------------7--------------------------------| 
A|---------------------------------------------------------------------------| 
D|---------------------------------------------------------------------------| 

e|---0-0---0-0---0-0---0-0------0-0---0-0---0-0---0-0------------------------| 
B|---1-1---0-0---------0--------1-1---0-0---------0--------------------------| 
G|---------------2-2-----0------------------2-2-----0------------------------|  
D|---------------------------------------------------------------------------| 
A|-0-----0-----0-----0--------0-----0-----0-----0----------------------------| 
D|---------------------------------------------------------------------------| 
                                                                                  Melody Backing No.2 (Riff 5) 
e|---0-0---0-0---0-0---0-0------0-0---0-0---0-0---0-0------------------------| 
B|---1-1---1-1-----------0------1-1---1-1-----------0------------------------| 
G|---------------2-2---2--------------------2-2---2--------------------------|  
D|---------------------------------------------------------------------------| 
A|-3-----3-----3-----3--------3-----3-----3-----3----------------------------| 
D|---------------------------------------------------------------------------| 



************************************ 

| h  =  hammer-on 

************************************ 
	  

Search Paypal
auto scroll beats size up size down change color hide chords drawings
tab show chords e-chords YouTube Clip e-chords hide all tabs e-chords go to top tab