Boney M

Sample City

Boney M

tabs

by  ALYSLIMA

save to print version add songbook text version e-mail correct tuner
chordsukulelecavacokeyboardtabbassdrumsharmonicaflute Guitar Pro
close

there isn't a video lesson for this song

chords

Sample City

	  		
Tuning:Standard 

this is the main melody of the song 
Version 1 : 
e|---------------------------------------------------------------------------| 
B|---------------------------------------------------0-0---------------------| 
G|---------------------------------------------------4-4---------------------| 
D|-----2--1-----------2--1--4--------4--2------------------------------------| 
A|--2--------2--0--2-----------2--0--------2--0-2----------------------------| 
E|---------------------------------------------------------------------------| 

Version 2 : 
e|-----0--------------0-----2--------2--0------------------------------------| 
B|--0-----4--0-----0-----4-----0-----------0----0----0-0---------------------| 
G|--------------2-----------------2-----------2------4-4---------------------| 
D|---------------------------------------------------------------------------| 
A|---------------------------------------------------------------------------| 
E|---------------------------------------------------------------------------| 
		  

See also:

tabs Placebo - Without you I'm Nothing tabs Kelly Clarkson - Since u been gone tabs Maroon 5 - She will be loved (intro) tabs Cyndi Lauper - Time After Time tabs Pink - Who knew tabs Black Eyed Peas - My humps
e-chords

Other versions:

tabs Boney M - Sample City
auto scroll beats size up size down change color hide chords drawings
tab show chords e-chords YouTube Clip e-chords hide all tabs e-chords go to top tab

share