Bob Marley

home > Bob Marley

Running Away Tab

Bob Marley

Difficulty: ExpertExpert

tuner correct add songbook print version text version save to e-mail
chordsukulelecavacokeyboardtabbassdrumsharmonicsflute Guitar Pro
chords

Running Away

Year: 2001 - Album: Kaya

  		Música: Running Away 
Artista: Bob Marley and the Wailers 
Disco: Kaya 
 
 
 
Solo da intrdução:       
e|------------------| 
B|--4-3-------------| 
G|-------5-3---7----| 
D|------------- ----| 
A|------------------| 
E|------------------|

e|------------------| 
B|--4-3-------------| 
G|-------5-3--------| 
D|------------5-----| 
A|------------------| 
E|------------------| 
 
Acordes depois do solo: 
 
Gm  Cm 

	  

Full key step upFull key step up
Half key step upHalf key step up
Half key step downHalf key step down
Full key step downFull key step down
Search Paypal
auto scroll beats size up size down change color hide chords drawings
tab show chords e-chords YouTube Clip e-chords hide all tabs e-chords go to top tab