Bob Marley

home > Bob Marley

Put It On Tab

Bob Marley

Difficulty: nolevelnolevel

by felipempm

tuner correct add songbook print version text version save to e-mail
chordsukulelecavacokeyboardtabbassdrumsharmonicsflute Guitar Pro
chords

Put It On

Year: 1973 - Album: African Herbsman (Trojan)

  		| / / E / / / E / / / A / / / A / | / / B / / / B / / / A / / / A / | 
|---------------------------------|---------------------------------| 
|---------------------------------|---------------------------------| 
|-----------------0---0-------0---|-2---2-------2---0---------------| 
|-0---0-------0-------------------|-------------------------2-------| 
 
| / / E / / / E / / / A / / / A / | / / B / / / B / / / A / / / A / | 
|---------------------------------|---------------------------------| 
|---------------------------------|---------------------------------| 
|-----------------0---0-------0---|-2---2-------2---0---0-----------| 
|-0---0-------0-------------------|-------------------------2---2---| 
  
Feel them spirit; 
Feel them spirit; 
Feel them spirit. 
Lord, I thank you; 
Lord, I thank you. 
Feel all right now; 
Feel all right now; 
Feel all right now. 
Good Lord, hear me; 
Good Lord, hear me. 
 
I'm not boasting; 
I'm not boasting; 
I'm not boasting, yeah! 
Feel like toasting; 
Feel like toasting; Simply 'cause: 
 
I'm gonna put it on; (In the morning) 
I'm gonna put it on; (In the night) 
I'm gonna put it on; (Anytime, anywhere) 
Good Lord, help me; 
Good Lord, help me. 
 
(Doo-doo doo-doo doo-doo doo);  
 
No more cryin'; 
No more cryin'; 
No more cryin'. 
Lord, I thank you; 
Lord, I thank you. 
 
And I'm gonna put it on; 
I'm gonna put it on; 
I'm gonna put it on. 
Feel all right now; 
Feel all right now. 
Lord, I thank you; 
Lord, I thank you; 
Lord, I thank you. 
Feel all right now; 
Feel all right now. 
 
Paz...Jah Bless!!! 
	  

Full key step upFull key step up
Half key step upHalf key step up
Half key step downHalf key step down
Full key step downFull key step down
Search Paypal
auto scroll beats size up size down change color hide chords drawings
tab show chords e-chords YouTube Clip e-chords hide all tabs e-chords go to top tab