Bob Marley

home > Bob Marley

Night Shift Tab

Bob Marley

Difficulty: EasyEasy

by felipempm

tuner correct add songbook print version text version save to e-mail
chordsukulelecavacokeyboardtabbassdrumsharmonicsflute Guitar Pro
chords

Night Shift

Year: 2001 - Album: Rastaman Vibration

  		Intro - Bridge: 
| / / D / / / D / / / D / / / D / | / / D / / / D / / / G / / / D / | 
|---------------------------------|---------------------------------| 
|---------------------------------|---------------5---5-3-----------| 
|---------5-5-5-3---3-------3-5---|---------5-5-5-----------5-------| 
|-------5-------------5-----------|---------------------------------| 
 
| / / D / / / D / / / D / / / D / | / / D / / / D / / / G / / / D / | 
|---------------------------------|---------------------------------| 
|---------------------------------|---------------5---5-3-----------| 
|---------5-3---3---3-------3-5---|---------5-5-5-----------5-------| 
|-------5-----5-------5-----------|---------------------------------| 
 
Chorus:  
| / / D / / / D / / / D / / / D / | / / G / / / G / / / G / / / G / | 
|---------------------------------|---------------------------------| 
|---------------------------------|-5---3-----------5-5-3-----------| 
|-5---3-----------5-5-3-----------|---------5---------------5-------| 
|---------5---------------5-------|---------------------------------| 
 
Verse: 
| / / D / / / D / / / D / / / D / | / / G / / / G / / / G / / / G / | 
|---------------------------------|---------------------------------| 
|---------------------------------|---------------------------------| 
|-5-5-3-5---------5-5-3-5---------|---------------------------------| 
|---------------------------------|-3-3-1-3---------3-3-1-3---------| 
 
The sun shall not smite I by day, Nor the moon by night; 
And everything that I do Shall be upfull and right. 
And if it's all night, It got to be all right! 
If it's all night, Got to be all right! 
 
Your mamma won't lose this one; 
You're the lucky one under the sun. If you make me move, 
Then you know you got the groove: All night, it's all right! 
All night, yeah! It's all right! 
 
Working on a forklift In the night shift; 
Working on a night shift, With the forklift, 
from A.M. (Did you say that? Why did you say that?) to P.M. (Working all night!) 
Working on a night shift, yeah! 
(Did you say that? Why did you say that? Upfull and right!) 
Well, if it's (all night!) - if it's (all right!) all night (all night!) - 
 
Warehouse (all right!), You're empty, yeah! 
Go around the corner, Bring your goods! 
Go around the other corner, 
Bring your suitcases. (All night!) 
By the sweat of my brow, (All right!) Eat your bread! (All night!) 
By the sweat of my brow, (All right!) Eat your bread! 
 
All night (all night)! All right (all right)! 
All night (all night)! All right (all right)! Oh, yeah! (moon by night) 
Why did you say that? Oh, yeah! (Upfull and right!) 
Working on a night shift With the forklift. (Moon by night!) 
Working on the night shift, 
Oh, yeah! (Upfull and right!) 

	  

Full key step upFull key step up
Half key step upHalf key step up
Half key step downHalf key step down
Full key step downFull key step down
Search Paypal
auto scroll beats size up size down change color hide chords drawings
tab show chords e-chords YouTube Clip e-chords hide all tabs e-chords go to top tab