Blur

home > Blur

Song 2 Tab

Blur

Difficulty: AdvancedAdvanced

by Chazy

tuner correct add songbook print version text version save to e-mail
chordsukulelecavacokeyboardtabbassdrummharmonicsflute Guitar Pro
chords

Song 2

Year: 1997 - Album: The Best of Blur

	  E--------------------------------------------| 
B--------------------------------------------| 
G--------------------------------------------|  INTRO E VERSO 
D---11-11-11-11-9-9-9-9-14-14-14-14-16--18---| 
A---9--9--9--9--7-7-7-7-12-12-12-12-14--16---| 
E--------------------------------------------| 
 
 
E----------------------------| 
B----------------------------| 
G----------------------------|   INTRO PART2 E Refrão 
D----------------------------| 
A---4-4-4-2-2-2-7-7-7-9-11---| 
E---2-2-0-0-0-0-5-5-5-7-9----| 
 
 
SOLO DO BAIXO 
 
G-2---2-------------------| 
D---4---4-----------------| 
A----------0-0-2-4--4-4-4-| 
E-------------------------| 
 
 
SOLO DO BAIXO 2 
 
 
G-2---2---6----------------| 
D---4---4------------------| 
A-----------0-0-2-4--4-4-4-| 
E--------------------------| 
 
LETRA: 
 
I got my head checked 
By a jumbo jet 
It wasn't easy 
But nothing is, no 
 
When I feel heavy metal 
And I'm pins and I'm needles 
Well I lie and I'm easy      
All of the time and I'm never sure why I need you 
Pleased to meet ya 
 
 
I got my head done 
When I was young 
It's not my problem 
It's not my problem 
        
When I feel heavy metal 
And I'm pins and I'm needles 
Well I lie and I'm easy 
All of the time and I'm never sure why I need you 
Pleased to meet ya 
 
Yeah, yeah 
Yeah, yeah 
Yeah, yeah 
Oh, yeah 

	  

there is a video lesson for this song
view full video
Search
auto scroll beats size up size down change color hide chords drawings
tab show chords e-chords YouTube Clip e-chords hide all tabs e-chords go to top tab