Blur

home > Blur

Song 2 Bass Tab

Blur

Difficulty: AdvancedAdvanced

by creuzebek

tuner correct add songbook print version text version save to e-mail
chordsukulelecavacokeyboardtabbassdrummharmonicsflute Guitar Pro
chords

Song 2

Year: 1997 - Album: The Best of Blur

	  MAIN RIFF: 
 
|-------------------------------| 
 
|-------------------------------| 
 
|----------------0-0-2-4--4-4-4-| 
 
|2-2-2-2-0-0-0-0-5-5-7-9--9-9-9-| 
  
 
BRIDGE: 
 
|------------------------------------------------------2-2/7-| 
 
|--------------------------------0-0-0-0-0-0-0-0-0-0-0/7-7/12| 
 
|-----------------0------------------------------------------| 
 
|2-----------------------------------------------------------| 
 
 
SOLO: 
 
|-2---2-------------------|  
 
|---4---4-----------------|  
 
|----------0-0-2-4--4-4-4-|  
 
|-------------------------|  
  
 
SOLO II: 
 
|-2---2---6----------------| 
 
|---4---4------------------| 
 
|-----------0-0-2-4--4-4-4-| 
 
|--------------------------| 
 
 
  
 
Estrutura: 
 
Esperar até "whoo hoo" 
 
MAIN RIFF X4 
 
Esperar durante o verso 
 
MAIN RIFF X3 
 
BRIDGE X1 
 
SOLO X2 
 
Esperar durante o verso 
 
MAIN RIFF X3 
 
BRIDGE X1 
 
SOLO X2 
 
SOLO II X2 
 
 

	  

there isn't a video lesson for this song

request
Search
auto scroll beats size up size down change color hide chords drawings
tab show chords e-chords YouTube Clip e-chords hide all tabs e-chords go to top tab