Bloodsoaked

Abomination

Bloodsoaked

tabs

by  EDSOOLIVEIRA

save to print version add songbook text version e-mail correct tuner
chordsukulelecavacokeyboardtabbassdrumsharmonicaflute Guitar Pro
close

there isn't a video lesson for this song

chords

Abomination

	  		


Tuning: D-G-C-F-A-D 


(First Riff Played 2 Times) 
D|----------------------------------------------------------------| 
A|----------------------------------------------------------------| 
F|----------------------------------------------------------------| 
C|----------------------------------------------------------------| 
G|-2-3-4---------------------------2-3-4--------------------------| 
D|-0-1-2-000000000000000000000000--0-1-2-000000000000000000000000-| 


(Second Riff Played 2 Times) 
D|----------------------------------------------------------------| 
A|----------------------------------------------------------------| 
F|----------------------------------------------------------------| 
C|----------------------------------------------------------------| 
G|-2-3-4-888888888888888888888888--2-3-4-888888888888888888888888-| 
D|-0-1-2---------------------------0-1-2--------------------------| 


(Break Part after first two Riffs) 
D|-------------------| 
A|-------------------| 
F|-------------------| 
C|-------------------| 
G|-2-3-4---3-4-3---3-| 
D|-0-1-2---1-2-1---1-| 


(Third Riff Played 2 Times) 
D|------------------------------------------------------------------| 
A|------------------------------------------------------------------| 
F|------------------------------------------------------------------| 
C|------------------------------------------------------------------| 
G|------------------------------------------------------------------| 
D|-1111111100001111222222224444333311111111000011112222222244443333-| 


(Third Riff Continued) 
D|--------------------------------------------------------------| 
A|--------------------------------------------------------------| 
F|--------------------------------------------------------------| 
C|--------------------------------------------------------------| 
G|-------------------------------------------------777777777777-| 
D|-111111110000111122222222444433331111111100006666-------------| 


(Fourth Riff Played 4 Times) 
D|-----------------------------------------------------------------| 
A|-----------------------------------------------------------------| 
F|-----------------------------------------------------------------| 
C|-----------------------------------------------------------------| 
G|-----------------------------------------------------------------| 
D|-000-111-000-111-000-111-444-333-000-111-000-111-000-111-444-333-| 


(Fourth Riff Continued) 
D|-----------------------------------------------------------------| 
A|-----------------------------------------------------------------| 
F|-----------------------------------------------------------------| 
C|-----------------------------------------------------------------| 
G|-------------------------------------------------222-111---------| 
D|-000-111-000-111-000-111-444-333-000-111-444-333---------111-222-| 


(Fifth/Chorus Riff Played 4 Times) 
D|------------------------------------------------------------------| 
A|------------------------------------------------------------------| 
F|------------------------------------------------------------------| 
C|------------------------------------------------------------------| 
G|-77777777------------------------77777777-------------------------| 
D|---------666677771111111133334444--------666677771111111133334444-| 


(Fifth/Chorus Riff Continued) 
D|----------------------------------------------------------| 
A|----------------------------------------------------------| 
F|----------------------------------------------------------| 
C|----------------------------------------------------------| 
G|-77777777-------------------------------------------------| 
D|---------666677771111111133334444111111111111111111111111-| 


(After the Fifth/Chorus Riff it goes back to the Fourth Riff 
and the last time the riff is played it ends like this) 
D|---------------------------------| 
A|---------------------------------| 
F|---------------------------------| 
C|---------------------------------| 
G|-----------------222-111-4-------| 
D|-000-111-444-333---------3-------| 


(Sixth Riff Played Eight Times 
D|---------------------------------| 
A|---------------------------------| 
F|---------------------------------| 
C|---------------------------------| 
G|-4---0-2-3-2-3-2-4--0-2-3-6------| 
D|-3---0-1-2-1-2-1-3--0-1-2-5------| 


(The song goes back to the Fifth/Chorus Riff for two times 
and then the song ends like this played Eight Times) 
D|--------------------------| 
A|--------------------------| 
F|--------------------------| 
C|--------------------------| 
G|------------------------3-| 
D|-111111111111111111111111-| 



All the riffs to the song are listed here, just listen 
to the song and you should be playing it in no time. 



| /  slide up 
| \  slide down 
| h  hammer-on 
| p  pull-off 
| ~  vibrato 
| +  harmonic 
| x  Mute note 
=============================================================== 
		  

Full key step upFull key step up
Half key step upHalf key step up
Half key step downHalf key step down
Full key step downFull key step down
hide glossary

See also:

tabs Metallica - No Remorse tabs Metallica - Orion tabs Metallica - Enter Sandman tabs Metallica - Master of Puppets (Main Riffs) tabs Metallica - Ecstasy of gold tabs Metallica - The Thing That Should Not Be
e-chords

Other versions:

tabs Bloodsoaked - Abomination
auto scroll beats size up size down change color hide chords drawings
tab show chords e-chords YouTube Clip e-chords hide all tabs e-chords go to top tab

share