Blink 182

home > Blink 182

Not Now Tab

Blink 182

Difficulty: EasyEasy

tuner correct add songbook print version text version save to e-mail
chordsukulelecavacokeyboardtabbassdrumsharmonicsflute Guitar Pro
chords

Not Now

Year: 2005 - Album: Blink 182 - Greatest Hits

(Blink 182)

  		Intro (Distorted):
e|---------------------------------|
B|---------------------------------|
G|-11-11-11-7-7-7777-77-9-11-7-7/9-|
D|-x--x--x--x-x-xxxx-xx-x-x--x-x-x-|
A|-9--9--9--5-5-5555-55-7-9--5-5/7-|
E|---------------------------------| Repeat x4 then pickslide

Intro Part 2 (Distorted):
e|--------------------------------------|
B|--------------------------------------|
G|-----777------------------------------|
D|-999-777-7777777777-55555555-44444444-|
A|-999-555-7777777777-55555555-55555555-|
E|-777-----5555555555-33333333-22222222-| Repeat x4

Verse (Played on keyboard):
e|------------|
B|------------|
G|-11-9-11-12-|
D|-x--x-x--x--|
A|-9--7-9--10-|
E|------------| Repeat x2

Verse Part 2 (Played on Electric Guitar DISTORTED):
e|------------|
B|------------|
G|-11-9-11-12-|
D|-x--x-x--x--|
A|-9--7-9--10-|
E|------------| Repeat x2
Note: PM all but the first strum of each chord.

Chorus (Acoustic Guitar):
e|---------------------|
B|---------------------|
G|-7777-7777-7777-7777-|
D|-7777-7777-7777-7777-|
A|-5555-4444-xxxx-xxxx-|
E|------5555-7777-5555-|

Repeat Intro Part 2 (Distorted):
e|--------------------------------------|
B|--------------------------------------|
G|-----777------------------------------|
D|-999-777-7777777777-55555555-44444444-|
A|-999-555-7777777777-55555555-55555555-|
E|-777-----5555555555-33333333-22222222-| Repeat x2

Verse (Played on keyboard):
e|------------|
B|------------|
G|-11-9-11-12-|
D|-x--x-x--x--|
A|-9--7-9--10-|
E|------------| Repeat x2

Verse Part 2 (Played on Electric Guitar CLEAN):
e|------------|
B|------------|
G|-11-9-11-12-|
D|-x--x-x--x--|
A|-9--7-9--10-|
E|------------| Repeat x2
Note: PM all chords.

Chorus (Electric Guitar Lightly DISTORTED):
e|---------------------|
B|---------------------|
G|-7777-7777-7777-7777-|
D|-7777-7777-7777-7777-|
A|-5555-4444-xxxx-xxxx-|
E|------5555-7777-5555-| Repeat x2

End on:
e|---|
B|---|
G|-7-|
D|-7-|
A|-5-|
E|---|

BASS SOLO HERE

Bridge Guitar 1 (Distorted):
e|---------------------------------|
B|---------------------------------|
G|-11-11-11-7-7-7777-77-9-11-7-7/9-|
D|-x--x--x--x-x-xxxx-xx-x-x--x-x-x-|
A|-9--9--9--5-5-5555-55-7-9--5-5/7-|
E|---------------------------------| x2

Bridge Guitar 2 (Clean):
e|------------------|
B|------------------|
G|------------------|
D|-7777777777777777-|
A|-5555555555555555-|
E|------------------| x2
PM ................

Chorus (Acoustic Guitar and Distortion Guitar after second repeat):
e|---------------------|
B|---------------------|
G|-7777-7777-7777-7777-|
D|-7777-7777-7777-7777-|
A|-5555-4444-xxxx-xxxx-|
E|------5555-7777-5555-| Repeat x4

Finish with (Distorted):
e|--------------------------------------|
B|--------------------------------------|
G|-----777------------------------------|
D|-999-777-7777777777-55555555-44444444-|
A|-999-555-7777777777-55555555-55555555-|
E|-777-----5555555555-33333333-22222222-| Repeat x4

And end with (Distorted);
e|-----------|
B|-----------|
G|-----7-----|
D|-9---7---7-|
A|-9---5---7-|
E|-7-------5-|


_______________________________________________________
Contribuição: Igor Andrey Strejevitch([email protected])
	  

Search Paypal
auto scroll beats size up size down change color hide chords drawings
tab show chords e-chords YouTube Clip e-chords hide all tabs e-chords go to top tab