Blink 182

home > Blink 182

Not Now Bass Tab

Blink 182

Difficulty: nolevelnolevel

by Tom+punk

tuner correct add songbook print version text version save to e-mail
chordsukulelecavacokeyboardtabbassdrumsharmonicsflute Guitar Pro
chords

Not Now

Year: 2005 - Album: Blink 182 - Greatest Hits

(Blink 182)

  		Intro: 
 
A|--999999----55555555--7-9--55/7------| 
E|-------------------------------------| (4x) 
 
 
A|-----555------------------------| 
E|-777-----55555--33333--22222222-| (4x) 
 
 
Verso: 
 
A|-9--7-9--10-| 
E|------------|  
 
Verso 2: 
 
A|-9--7-9--10-| 
E|------------|  
 
Refrão: 
 
A|-5555----------------| 
E|------5555-7777-5555-| (2x) 
 
 
_______________________________________________________ 
 
A|-----555------------------------| 
E|-777-----55555--33333--22222222-| (2x) 
 
Verso: 
A|-9--7-9--10-| 
E|------------|  
 
Refrão:  
 
A|-5555----------------| 
E|------5555-7777-5555-| 4X  
 
 
Riff: 
 
A|-----555------------------------| 
E|-777-----55555--33333--22222222-| (4x) 
 
Refrão:  
 
A|-5555----------------| 
E|------5555-7777-5555-| (8X) 
 
Riff: 
 
A|-----555------------------------| 
E|-777-----55555--33333--22222222-| (4x) 
 
termina: 
 
Riff: 
 
A|---5------------------------| 
E|-7---5----------------------|   

	  

Search Paypal
auto scroll beats size up size down change color hide chords drawings
tab show chords e-chords YouTube Clip e-chords hide all tabs e-chords go to top tab