Blink 182

home > Blink 182

I Miss You Tab

Blink 182

Difficulty: BeginnerBeginner

tuner correct add songbook print version text version save to e-mail
chordsukulelecavacokeyboardtabbassdrummharmonicsflute Guitar Pro
chords

I Miss You

Year: 2003 - Album: Blink 182 - Greatest Hits

(Blink 182)

  		Intro:

e----------------------------------
B----------------------------------
G-44---888-------------------------
D-44---888-------------------------
A-22---666-------------------------
E----------------------------------


Verso (Verse):

e----------------------------------
B----------------------------------
G-44---888-------------------------
D-44---888-------------------------
A-22---666-------------------------
E----------------------------------


Refrão (Chorus):

e----------------------------------------
B----------------------------------------
G-44444---666---8888---111111---9999999--
D-44444---666---8888---111111---9999999--
A-22222---444---6666---9-9-9----7777777--
E----------------------------------------


(Verso)
Hello there, the angel from my nightmare
The shadow in the background of the morgue
The unsuspecting victim of darkness in the valley
We can live like Jack and Sally if we want 
Where you can always find me
We'll have Halloween on Christmas
And in the night we'll wish this never ends
We'll wish this never ends

(Verso)
Where are you and I'm so sorry
I cannot sleep I cannot dream tonight
I need somebody and always
This sick strange darkness 
Comes creeping on so haunting every time
And as I stared I counted 
Webs from all the spiders
Catching things and eating their insides
Like indecision to call you
and hear your voice of treason
Will you come home and stop this pain tonight
Stop this pain tonight

(Refrão)
Don't waste your time on me you're already 
The voice inside my head (I miss you miss you)
Don't waste your time on me you're already 
The voice inside my head (I miss you miss you)

_______________________________________________________
Contribuição: Gustavo Dugonski([email protected])
	  

Search Paypal
auto scroll beats size up size down change color hide chords drawings
tab show chords e-chords YouTube Clip e-chords hide all tabs e-chords go to top tab