Blink 182

home > Blink 182

I Miss You Bass Tab

Blink 182

Difficulty: BeginnerBeginner

by Gato%5Fobservador

tuner correct add songbook print version text version save to e-mail
chordsukulelecavacokeyboardtabbassdrummharmonicsflute Guitar Pro
chords

I Miss You

Year: 2003 - Album: Blink 182 - Greatest Hits

(Blink 182)

  		G|-------------------------| 
D|-------------------------| 
A|---22---11---------11----| 
E|-2----2----2-44--2-------|  
 
 Detalhe vai repetindo até chegar o Refrão. 
 
G|------------------| 
D|-----1------------| 
A|-2-4---------2----| 
E|-------2-0-0------| 
 
G|----------------------| 
D|----------------------| 
A|---------11------22---| 
E|-2-44--2----2---------| 
 
 Outro detalhe, tem uma parte que antes de acabar a música  
ele usa essas notas e tipo antes do Refrão acabar que depois entra 
o instrumento teclado. É só ouvir a música que é bem fácil. 
 
Contribuição: Diego Bicca Alves ([email protected]) 

	  

Search Paypal
auto scroll beats size up size down change color hide chords drawings
tab show chords e-chords YouTube Clip e-chords hide all tabs e-chords go to top tab