Blink 182

home > Blink 182

Hold on Tab

Blink 182

Difficulty: nolevelnolevel

tuner correct add songbook print version text version save to e-mail
chordsukulelecavacokeyboardtabbassdrumsharmonicsflute Guitar Pro
chords

Hold on

  		 
e------------------------------ 
B------------------------------ 
G-5*----5-5------5*-----5-5---- 
D-5*----5-5------5*-----5-5---- 
A-3*----3-3------3*-----3-3---- 
E------------------------------ 
          
e------------------------------------ 
B------------------------------------ 
G-5-5-5-5-5-5-5-5-5-5-5-5-5-5-5-5-5-5 
D-5-5-5-5-5-5-5-5-5-5-5-5-5-5-5-5-5-5    X 2 
A-3-3-3-3-3-3-3-3-3-3-3-3-3-3-3-3-3-3 
E------------------------------------ 
 
e-------------------------------------- 
B-------------------------------------- 
G-5-5-5-5-5-5-5-5-5--------------------  X 4 
D-5-5-5-5-5-5-5-5-5-5-5-5-5-5-3-3-3-3-3     
A-3-3-3-3-3-3-3-3-3-5-5-5-5-5-3-3-3-3-3 
E-------------------3-3-3-3-3-1-1-1-1-1 
 
e-------------------------------------- 
B-------------------------------------- 
G-------------------------------------- 
D--2-0-2-3-0---2-0-2-3-0---------------  X2 
A-3-----3-----3-----3------------------ 
E-------------------------------------- 
 
e-------------------------------------------------------- 
B-------------------------------------------------------- 
G-5-5-5-5-5-5-5-5-5-5-5-5-------------------------5------   X 4 
D-5-5-5-5-5-5-5-5-5-5-5-5-5-5-5-5-5-3-3-3-3-3-3-3-5------ 
A-3-3-3-3-3-3-3-3-3-3-3-3-5-5-5-5-5-3-3-3-3-3-3-3-3------ 
E-------------------------3-3-3-3-3-1-1-1-1-1-1-1-------- 
pm.......................   .......   ........... 
 
e-------------------------------------- 
B-------------------------------------- 
G-5-5-5-5-5-5-5-5-5-5-5-5-5-5-5-5-5-5-5 
D-5-5-5-5-5-5-5-5-5-5-5-5-5-5-5-5-5-5-5   X 2 
A-3-3-3-3-3-3-3-3-3-3-3-3-3-3-3-3-3-3-3 
E-------------------------------------- 
 
e-------------------------------------- 
B-------------------------------------- 
G-5-5-5-5-5-5-5-5-5-------------------- 
D-5-5-5-5-5-5-5-5-5-5-5-5-5-5-3-3-3-3-3  X 4 
A-3-3-3-3-3-3-3-3-3-5-5-5-5-5-3-3-3-3-3 
E-------------------3-3-3-3-3-1-1-1-1-1 
 
e-------------------------------------- 
B-------------------------------------- 
G-------------------------------------- 
D--2-0-2-3-0---2-0-2-3-0---------------  X 2 
A-3-----3-----3-----3------------------ 
E-------------------------------------- 
 
e---------------------------------------------- 
B---------------------------------------------- 
G-5-5-5-5-5-5-5-5-5-5-------------------------- 
D-5-5-5-5-5-5-5-5-5-5-5-5-5-5-5-7-7-3-3-3-3-3-3  X 4 
A-3-3-3-3-3-3-3-3-3-3-5-5-5-5-5-7-7-3-3-3-3-3-3 
E---------------------3-3-3-3-3-5-5-1-1-1-1-1-1 
pm............................................. 
 
e------------------------------------------ 
B------------------------------------------ 
G-5-5-5-5-5-5-5-5-5-5---------------------- 
D-5-5-5-5-5-5-5-5-5-5-5-5-5-5-5-3-3-3-3-3-3  X 8 
A-3-3-3-3-3-3-3-3-3-3-5-5-5-5-5-3-3-3-3-3-3 
E---------------------3-3-3-3-3-1-1-1-1-1-1 
 
 

	  

Search Paypal
auto scroll beats size up size down change color hide chords drawings
tab show chords e-chords YouTube Clip e-chords hide all tabs e-chords go to top tab