Blink 182

home > Blink 182

Action Tab

Blink 182

Difficulty: AdvancedAdvanced

tuner correct add songbook print version text version save to e-mail
chordsukulelecavacokeyboardtabbassdrummharmonicsflute Guitar Pro
chords

Action

  		Intro e Verso:        (Depois vêm um refrão que só o baixo toca)

e ----------------------------------------------------
B ----------------------------------------------------
G ----------------------------------------------------
D ------------4-0-----6-------------------------------
A ---7-7-7-7-----7-7----7-----------------------------
E ----------------------------------------------------

Refrão em que só baixo toca: (tablatura de baixo)  (2x)

G ------------------------------------------------------------------
D ------------------------------------------------------------------
A -7-7-7-7-7-7-7-7--------------------------------------------------
E -----------------7-7-7-7-7-7-7-7-9-9-9-9-9-9-9-9-5-5-5-5-5-5-5-5--

(DEPOIS QUE O BAIXO TOCAR UMA VEZ O RIFF ACIMA A GUITARA FAZ O QUE ESTÁ ABAIXO)

e -------
B -------
G --9-9--
D --9-9--
A --7-7--
E -------

Solo:

e ----------------------------------------------------
B ----------------------------------------------------
G ----------------------------------------------------
D ----------------------------------------------------
A ---7-7-7-7-7-9-9-9-9-9-11-11-11-11-11-12-12-12-12-12
E ----------------------------------------------------

> Verso

> Refrão em que só o baixo toca

> Parte em que só ficam os vocais e a bateria


(Abafado)  (2x)

e -----------------------------------------------------------------------------
B -----------------------------------------------------------------------------
G ---9-9-9-9-9-9-9-9-----------------------------------------------------------
D ---9-9-9-9-9-9-9-9-9-9-9-9-9-9-9-9-11-11-11-11-11-11-11-11-7-7-7-7-7-7-7-7---
A ---7-7-7-7-7-7-7-7-9-9-9-9-9-9-9-9-11-11-11-11-11-11-11-11-7-7-7-7-7-7-7-7---
E -------------------7-7-7-7-7-7-7-7-9--9--9--9--9--9--9--9--5-5-5-5-5-5-5-5---

Refrão 2 (Até o final da música)

e -----------------------------------------------------------------------------
B -----------------------------------------------------------------------------
G ---9-9-9-9-9-9-9-9-----------------------------------------------------------
D ---9-9-9-9-9-9-9-9-9-9-9-9-9-9-9-9-11-11-11-11-11-11-11-11-7-7-7-7-7-7-7-7---
A ---7-7-7-7-7-7-7-7-9-9-9-9-9-9-9-9-11-11-11-11-11-11-11-11-7-7-7-7-7-7-7-7---
E -------------------7-7-7-7-7-7-7-7-9--9--9--9--9--9--9--9--5-5-5-5-5-5-5-5---

_______________________________________________________
Contribuição: Bernardo Zanetti([email protected])
	  

Search Paypal
auto scroll beats size up size down change color hide chords drawings
tab show chords e-chords YouTube Clip e-chords hide all tabs e-chords go to top tab