BlessTheFall

Five Ninety

BlessTheFall

tabs nolevel nolevel

by  DEIVCAVALCANTI

save to print version add songbook text version e-mail correct tuner
chordsukulelecavacokeyboardtabbassdrumsharmonicaflute Guitar Pro
close

there isn't a video lesson for this song

chords

Five Ninety

	  		
Tabbed by:Metalcoreking 
Email:[email protected] 

Tuning:DADGBE 

INTRO 
E|-----------------------------------------------------------------22++++++-| 
B|--------------------------------------------------------------------------| 
G|--------------------------------------------------------------------------| 
D|-0------------------------------------------------------------------------| 
A|-0------------------------------------------------------------------------| 
D|-0------------------------------------------------------------------------| 

E|----------------------------------------------------------------------(x8)| 
B|--------------------------------------------------------------------------| 
G|--------------------------------------------------------------------------| 
D|--------------------------------------------------------------------------| 
A|-00000-000-000-0000-000-000-----------------------------------------------| 
D|-00000-000-000-0000-000-000-----------------------------------------------| 
   xxxxx xxx xxx xxxx xxx xxx   

TREMELO 
E|--------------------------------------------------------------------------| 
B|--------------------------------------------------------------------------| 
G|-77557777557777777755777577777777-99779999779999999977999799999999--------| 
D|--------------------------------------------------------------------------| 
A|--------------------------------------------------------------------------| 
D|--------------------------------------------------------------------------| 
 |                                                                          | 
E|--------------------------------------------------------------------------| 
B|--------------------------------------------------------------------------| 
G|-101099101010109910101010101010109910101091010101010101010----------------| 
D|--------------------------------------------------------------------------| 
A|--------------------------------------------------------------------------| 
D|--------------------------------------------------------------------------| 
 |                                                                          | 
E|--------------------------------------------------------------------------| 
B|--------------------------------------------------------------------------| 
G|-1212101012121212101012121212121212121010121212101212121212121212\--------| 
D|--------------------------------------------------------------------------| 
A|--------------------------------------------------------------------------| 
D|--------------------------------------------------------------------------| 

PRE CHORUS 
E|--------------------------------------------------------------------------| 
B|------10-------10----8-------8----8----8h10-------------------------------| 
G|-7-10----10-10----10---10-10---10---10------------------------------------| 
D|--------------------------------------------------------------------------| 
A|--------------------------------------------------------------------------| 
D|--------------------------------------------------------------------------| 
 |                                                                          | 
E|----------------------------------8---------------------------------------| 
B|------10-------10----8-------8---------8h10-------------------------------| 
G|-7-10----10-10----10---10-10---10---10------------------------------------| 
D|--------------------------------------------------------------------------| 
A|--------------------------------------------------------------------------| 
D|--------------------------------------------------------------------------| 

CHORUS                                                                          
E|----------------------------------------------------------------------(x8)| 
B|------10-------10----8-------8----13---8h10-------------------------------| 
G|-7-10----10-10----10---10-10---10----10-----------------------------------| 
D|--------------------------------------------------------------------------| 
A|--------------------------------------------------------------------------| 
D|--------------------------------------------------------------------------| 
 |                                                                          | 
E|--------------------------------------------------------------------------| 
B|------10-------10----8-------8----8----8h10-------------------------------| 
G|-7-10----10-10----10---10-10---10---10------------------------------------| 
D|--------------------------------------------------------------------------| 
A|--------------------------------------------------------------------------| 
D|--------------------------------------------------------------------------| 
 |                                                                          | 
E|----------------------------------8---------------------------------------| 
B|------10-------10----8-------8---------8h10-------------------------------| 
G|-7-10----10-10----10---10-10---10---10------------------------------------| 
D|--------------------------------------------------------------------------| 
A|--------------------------------------------------------------------------| 
D|--------------------------------------------------------------------------| 

VERSE 
E|----------------------------------------------------------------------(x2)| 
B|--------------------------------------------------------------------------| 
G|--------------------------------------------------------------------------| 
D|--------------------------------------------------------------------------| 
A|-8-8-888888-555-555555-0-0-000000-000-000000------------------------------| 
D|-8-8-888888-555-555555-0-0-000000-000-000000------------------------------| 
 | x x xxxxxx xxx xxxxxx x x xxxxxx xxx xxxxxx                              | 
E|----------------------------------------------------------------------(x3)| 
B|-10-10-10-10-10-10-10-10-10-8-8-8-8-8-8-8---------------------------------| 
G|--------------------------------------------------------------------------| 
D|--------------------------------------------------------------------------| 
A|--------------------------------------------------------------------------| 
D|--------------------------------------------------------------------------| 
 | x  x  x  x  x  x  x  x  x  x x x x x x x                                 | 
E|--------------------------------------------------------------------------| 
B|------13-------13----13-------13----13----13\-----------------------------| 
G|-7-10----10-10----10----10-10----10----10---------------------------------| 
D|--------------------------------------------------------------------------| 
A|--------------------------------------------------------------------------| 
D|--------------------------------------------------------------------------| 

CHORUS 

VERSE 
E|----------------------------------------------------------------------(x2)| 
B|--------------------------------------------------------------------------| 
G|--------------------------------------------------------------------------| 
D|--------------------------------------------------------------------------| 
A|-8-8-888888-555-555555-0-0-000000-000-000000------------------------------| 
D|-8-8-888888-555-555555-0-0-000000-000-000000------------------------------| 
 | x x xxxxxx xxx xxxxxx x x xxxxxx xxx xxxxxx                              | 
E|--------------------------------------------------------------------------| 
B|--------------------------------------------------------------------------| 
G|--------10/141414--------10/141414--------10/14141414\12121212\101010-----| 
D|-8-8-8-8-x-x-x-x--5-5-5-5-x-x-x-x--0-0-0-0-x-x-x-x-x--x-x-x-x--x-x-x------| 
A|-8-8-8-8-8/121212-5-5-5-5-8/121212-0-0-0-0-8/12121212\10101010\8-8-8------| 
D|-8-8-8-8----------5-5-5-5----------0-0-0-0--------------------------------| 
 |                                                                          | 
E|--------------------------------------------------------------------------| 
B|--------------------------------------------------------------------------| 
G|--------10/141414--------10/141414----------------------------------------| 
D|-8-8-8-8-x-x-x-x--5-5-5-5-x-x-x-x--0-0-0-0-0-0-0-0-0-0-0-0-3-3------------| 
A|-8-8-8-8-8/121212-5-5-5-5-8/121212-0-0-0-0-0-0-0-0-0-0-0-0-3-3------------| 
D|-8-8-8-8----------5-5-5-5----------0-0-0-0-0-0-0-0-0-0-0-0-3-3------------| 
                                                             x x  
CHORUS 

BREAKDOWN 
E|--------------------------------------------------------------------------| 
B|--------------------------------------------------------------------------| 
G|--------------------------------------------------------------------------| 
D|--------------------------------------------------------------------------| 
A|-000-000-0000-00-0-000-000--000-000-0000-00-000-000-----------------------| 
D|-000-000-0000-00-0-000-000--000-000-0000-00-000-000-----------------------| 
 | xxx xxx xxxx xx x xxx xxx  xxx xxx xxxx xx xxx xxx                       |        
E|--------------------------------------------------------------------------| 
B|--------------------------------------------------------------------------| 
G|--------------------------------------------------------------------------| 
D|--------------------------------------------------------------------------| 
A|-0-0000-00-0-000-000-0-0000-000-0-----------------------------------------| 
D|-0-0000-00-0-000-000-0-0000-000-0-----------------------------------------| 
 | x xxxx xx x xxx xxx x xxxx xxx x                                         | 
E|--------------------------------------------------------------------------| 
B|--------------------------------------------------------------------------| 
G|--------------------------------------------------------------------------| 
D|--------------------------------------------------------------------------| 
A|-000-00000-0-0-000-000-000-00000-0-0-000-000-000--------------------------| 
D|-000-00000-0-0-000-000-000-00000-0-0-000-000-000--------------------------| 
 | xxx xxxxx x x xxx xxx xxx xxxxx x x xxx xxx xxx                          | 
E|--------------------------------------------------------------------------| 
B|--------------------------------------------------------------------------| 
G|--------------------------------------------------------------------------| 
D|--------------------------------------------------------------------------| 
A|-0-0000-00-0-000-000-0-0000-000-0-----------------------------------------| 
D|-0-0000-00-0-000-000-0-0000-000-0-----------------------------------------| 
   x xxxx xx x xxx xxx x xxxx xxx x 

OUTRO (x5) 
E|----------------------------------------------------------------------(x3)| 
B|------10-------10-------10-------10---------------------------------------| 
G|-7-10----10-10----10-10----10-10----10-10---------------------------------| 
D|--------------------------------------------------------------------------| 
A|--------------------------------------------------------------------------| 
D|--------------------------------------------------------------------------| 
 |                                                                          | 
E|--------------------------------------------------------------------------| 
B|------8-------8-------8-------8-------------------------------------------| 
G|-7-10---10-10---10-10---10-10---10-10-------------------------------------| 
D|--------------------------------------------------------------------------| 
A|--------------------------------------------------------------------------| 
D|--------------------------------------------------------------------------| 

************************************ 

| /   slide up 
| \   slide down 
| h   hammer-on 
| p   pull-off 
| ~   vibrato 
| +   harmonic 
| x   Mute note 
| b   Bend 
| pb  Pre-bend 
| br  Bend release 
| pbr Pre-bend release 
| brb Bend release bend 

************************************ 
		  

See also:

tabs All American Rejects - Gives You Hell tabs That 70's show - That 70's show theme song tabs A Day to Remember - All I Want tabs Panic! At The Disco - Build God Then We'll Talk tabs Johan Sebastian Bach - Toccata em Sol. tabs Danny Elfman - Simpsons
e-chords

Other versions:

tabs BlessTheFall - Five Ninety
auto scroll beats size up size down change color hide chords drawings
tab show chords e-chords YouTube Clip e-chords hide all tabs e-chords go to top tab

share with facebook