BlessTheFall

40 Days

BlessTheFall

tabs Expert expert

by  LUCICAMARGO

save to print version add songbook text version e-mail correct tuner
chordsukulelecavacokeyboardtabbassdrumsharmonicaflute Guitar Pro
close

there isn't a video lesson for this song

chords

40 Days

	  		

INTRO 
E|--------------------------------------------------------------------------| 
B|-------13-----13-------13-----13-------13-----13-------13-------13--------| 
G|----10------10------10------10------10------10------10-------10-----------| 
D|-12-------12-----12-------12-----12-------12-----12-------12--------------| 
A|--------------------------------------------------------------------------| 
D|--------------------------------------------------------------------------| 
                                                                           
E|----------------------------------------------------------------------(x2)| 
B|--------------------------------------------------------------------------| 
G|----------101010101010------------------9-9-9-10101077777777777777777777--| 
D|-00000000-x-x-x-x-x-x--1010101010101010-x-x-x-x-x-x-xxxxxxxxxxxxxxxxxxxx--| 
A|-00000000-8-8-8-8-8-8--1010101010101010-7-7-7-8-8-8-55555555555555555555--| 
D|-00000000--------------1010101010101010-----------------------------------| 
   xxxxxxxx              x x x x x x x x                                     

VERSE 
E|--------------------------------------------------------------------------| 
B|--------------------------------------------------------------------------| 
G|----------10-----------------10-----------------10------------------------| 
D|-10-12-12----12-12--10-12-12----12-12--10-12-12----12-12------------------| 
A|--------------------------------------------------------------------------| 
D|--------------------------------------------------------------------------| 
                                                                            
E|------(1st)|-------(2nd)|-------(3rd)|------(4th)|-------(5th)|------(6th)| 
B|-----------|------------|-13---------|-----------|------------|-----------| 
G|-9h10p9----|-xx-9h10----|---12-12h14-|-xx-9h10---|-9h10p9-----|-xx-9h10---| 
D|--------10-|------------|------------|-----------|--------10--|-----------| 
A|-----------|------------|------------|-----------|------------|-----------| 
D|-----------|------------|------------|-----------|------------|-----------| 

E|--------------------------------------------------------------------------| 
B|-----13--13----13--13----13--13----13--13----13--13----13--13----13--13---| 
G|---10--10----10--10----10--10----10--10----10--10----10--10----10--10-----| 
D|-12--------12--------12--------12--------12--------12--------12-----------| 
A|--------------------------------------------------------------------------| 
D|--------------------------------------------------------------------------| 

CHORUS 
E|----------------------------------------------------------------------(x2)| 
B|--------------------------------------------------------------------------| 
G|----------101010101010------------------9-9-9-10101077777777777777777777--| 
D|-00000000-x-x-x-x-x-x--1010101010101010-x-x-x-x-x-x-xxxxxxxxxxxxxxxxxxxx--| 
A|-00000000-8-8-8-8-8-8--1010101010101010-7-7-7-8-8-8-55555555555555555555--| 
D|-00000000--------------1010101010101010-----------------------------------| 
 
E|-------------------------------------------------------(2ndtime10s)---(x2)| 
B|--------------------------------------------------------------------------| 
G|-----------1010101010-----------12129-9-9-9-------------------------------| 
D|-5-5-5-5-5-x-x-x-x-x--7-7-7-7-7-x-x-x-x-x-x-8888888888-(8888888888)-------| 
A|-5-5-5-5-5-8-8-8-8-8--7-7-7-7-7-1010107-7-7-8888888888-(8888888888)-------| 
D|-5-5-5-5-5------------7-7-7-7-7-------------8888888888-(8888888888)-------| 

VERSE 

CHORUS 

SOLO 
E|--------------------------------------------------------------------------| 
B|--------------------------------------------------------------------------| 
G|-------------------10h12h14b-14-14-14p10-12p10-12-------------------------| 
D|----------10h12h13--------------------------------12-10-12----------------| 
A|-10h12h13-----------------------------------------------------------------| 
D|--------------------------------------------------------------------------| 
                                                                            
E|--------------------------------------------------------------------------| 
B|-18-17-15-13-13h15--------------------------------------------------------| 
G|-------------------14-14h15p14-12-14-12h14p12-10-12-----------------------| 
D|--------------------------------------------------------------------------| 
A|--------------------------------------------------------------------------| 
D|--------------------------------------------------------------------------| 
                                                                            
E|--------------------------------------------------------------------------| 
B|--------------------------------------------------------------------------| 
G|-9-10-9h10p9--------------------------------------------------------------| 
D|-------------10----10/12-12-12/14-----------------------------------------| 
A|----------------12--------------------------------------------------------| 
D|--------------------------------------------------------------------------| 

BREAKDOWN 
E|--------------------------------------------------------------------------| 
B|--------------------------------------------------------------------------| 
G|-10-14-14-14-10-12-14-12-10-7-7-7-7-x-9x9x9x9-x-10101010-x-12-------------| 
D|-x--x--x--x--x--x--x--x--x--x-x-x-x-x-x-x-x-x-x-x-x-x-x--x-x--------------| 
A|-8--12-12-12-8--10-12-10-8--5-5-5-5-x-7-7-7-7-x-8-8-8-8--x-12-------------| 
D|--------------------------------------------------------------------------| 
                                                                            
E|--------------------------------------------------------------------------| 
B|--------------------------------------------------------------------------| 
G|-14-14-14-10-17-15-10-7--14--12--10---------------------------------------| 
D|-x--x--x--x--x--x--x--x--x---x---x----------------------------------------| 
A|-12-12-12-8--15-13-8--5--12--10--8----------------------------------------| 
D|--------------------------------------------------------------------------| 
                                                                            
E|--------------------------------------------------------------------------| 
B|--------------------------------------------------------------------------| 
G|---------9h10p9-10-------10---9h10p9-10-----------------------------------| 
D|-10/12-------------12----12-------------12-10-----------------------------| 
A|--------------------------------------------------------------------------| 
D|--------------------------------------------------------------------------| 

CHORUS 
E|----------------------------------------------------------------------(x2)| 
B|--------------------------------------------------------------------------| 
G|----------101010101010------------------9-9-9-10101077777777777777777777--| 
D|-00000000-x-x-x-x-x-x--1010101010101010-x-x-x-x-x-x-xxxxxxxxxxxxxxxxxxxx--| 
A|-00000000-8-8-8-8-8-8--1010101010101010-7-7-7-8-8-8-55555555555555555555--| 
D|-00000000--------------1010101010101010-----------------------------------| 
                                   
E|--------------------------------------------------------------------------| 
B|--------------------------------------------------------------------------| 
G|--------------------------------------------------------------------------| 
D|-555555555555-888888888888-555555555555-888888101010101010----------------| 
A|-555555555555-888888888888-555555555555-888888101010101010----------------| 
D|-555555555555-888888888888-555555555555-888888101010101010----------------| 

OUTRO SOLO 
E|--------------------------------------------------------------------------| 
B|--------------------------------------------------------------------------| 
G|-9h10p9--------------------------------9h10p9-----------------------------| 
D|--------10-10h12------------------------------10-10h12------------------10| 
A|-----------------12-10-10-10/12-12brb-8----------------12-10-10-10/12-13--| 
D|--------------------------------------------------------------------------| 
                                                                            
E|--------------------------------------------------------------------------| 
B|-------13-----13-------13-----13-------13-----13-------13-------13--------| 
G|----10------10------10------10------10------10------10-------10-----------| 
D|-12-------12-----12-------12-----12-------12-----12-------12--------------| 
A|--------------------------------------------------------------------------| 
D|--------------------------------------------------------------------------| 
 
		  

See also:

tabs Regina Spektor - Us tabs Plain White T's - Write You a Song tabs Panic! At The Disco - I write sins not tragedies tabs Epica - Run For A Fall tabs All American Rejects - Dirty little secret (ver.2) tabs Plain White T's - Hate (I really don't like you)
e-chords

Other versions:

tabs Third Day - 40 days tabs BlessTheFall - 40 Days
auto scroll beats size up size down change color hide chords drawings
tab show chords e-chords YouTube Clip e-chords hide all tabs e-chords go to top tab

share