Bleach

Wonderful2

Bleach

tabs

save to print version add songbook text version e-mail correct tuner
chordsukulelecavacokeyboardtabbassdrumsharmonicaflute Guitar Pro
close

there isn't a video lesson for this song

chords

Wonderful2

	  		Transcribed by:Caleb S.   [email protected] 
 
Guitar 1:intro &  Verse   Db  Ab   Bb   F# 
 
Guitar 2: This isthe intro and Chorus 
G-------11\10-------------------------------10--------11\10 
D---------------------11-----13------13------------------------------11----- 
-13-----(13)-----11 
 
 
 
Guitar2: Verse   (Quietly) 
G--------------------------13----15----13---13---15----13 
D---11---13---15----------------------------------------------------15---13- 
--16---16---16---15--13--11 
 
G-------------------------13-----15---13----13---15----13---------------13 
D---11---13---15----------------------------------------------------15------ 
-------8---8----11----13----11 
 
 
 
I'll get the bridge on here as soon as I figure it out 

		  

Full key step upFull key step up
Half key step upHalf key step up
Half key step downHalf key step down
Full key step downFull key step down
auto scroll beats size up size down change color hide chords drawings
tab show chords e-chords YouTube Clip e-chords hide all tabs e-chords go to top tab

share