Bleach

Going Home

Bleach

tabs Beginner beginner

by  AMAN_CLAUDINO

save to print version add songbook text version e-mail correct tuner
chordsukulelecavacokeyboardtabbassdrumsharmonicaflute Guitar Pro
close

there isn't a video lesson for this song

chords

Going Home

	  		       F       Bb    Am      D7 
e|---------------------0-----------------------------------| 
B|-5-6-5-6-5-3\1-1---1---4---------------------------------| 
G|-5-5-5-5-5-----0-0-----5---------------------------------| 
D|-5-7-5-7-5-----2-------4---------------------------------| 
A|-8-------------0-------6---------------------------------| 
E|---------6-----------------------------------------------| 
    Gm      A       Dm     C#m      Cm     D7/F 
e|-----3h5-5-6-5-6-5-------------------------------10----| 
B|---6-----3-------6--8--6-----6-5-----5-4-----3-7-------| 
G|-5-------3-------6-----5---5---4---4---3---3---8-------| 
D|-----------------------7-7-----6-6-----5-5-----7-------| 
A|-----------------0-----5-------4-------3-------8-------| 
E|---------3---------------------------------------------| 
      Bb              A     Dm 
e|-------1-5-6-5-6-5-----5-5-5-6-5h6-5---------------------| 
B|-----3-----------6-6-8-6-6-6-6-6---5---------------------| 
G|---2-------------6-----7-7---------4---------------------| 
D|-----------------------------------3---------------------| 
A|-1---------------0---------------------------------------| 
E|-----------------------------------3---------------------| 
             Gm              C 
e|---------------3---------------3-------------------------| 
B|-3-2h3-6-----6-----6---6-----6---------------------------| 
G|-------3---3-----3---3-3---3-----------------------------| 
D|-------5-5-------------5-5-------------------------------| 
A|-----------------------3---------------------------------| 
E|-------3-------------------------------------------------| 
       F       Bb    Am      D7 
e|---------------------0-----------------------------------| 
B|-5-6-5-6-5-3\1-1---1---4---------------------------------| 
G|-5-5-5-5-5-----0-0-----5---------------------------------| 
D|-5-7-5-7-5-----2-------4---------------------------------| 
A|-8-------------0-------6---------------------------------| 
E|---------6-----------------------------------------------| 
        Gm      A       Dm  C#  C   D7/F 
e|-----3h5-5-6-5-6-5-------------------10----------------| 
B|---6-----3-------6--8--6---6---6---7-------------------| 
G|-5-------3-------6-----5-5-6-6-3-3-8-------------------| 
D|-----------------------7-7-6-6-5-5-7-------------------| 
A|-----------------0-----5---4---3---8-------------------| 
E|---------3---------------------------------------------| 
       Bb              A     Dm 
e|-------1-5-6-5-6-5-----5-6-5-6-5-------------------------| 
B|-----3-----------6-6-8-6-6-6-6-5-------------------------| 
G|---2-------------6-----7-------4-------------------------| 
D|-------------------------------3-------------------------| 
A|-1---------------0---------------------------------------| 
E|-------------------------------3-------------------------| 
             Gm 
e|---------------3-------3-------3-------------------------| 
B|-3-2h3-6-----6-------6-------6-------6-------------------| 
G|-------3---3-------3-------3-------3---------------------| 
D|-------5-5-------5-------5-------5-----------------------| 
A|---------------------------------------------------------| 
E|-------3-------------------------------------------------| 
       Gm      C      B/C     F#/C 
e|---------------------------8-----------------------------| 
B|-3-----3-5-----5-6-----6-7-------------------------------| 
G|-3---3---5---5---7---7---6-------------------------------| 
D|-3-3-----5-5-----8-8-----8-------------------------------| 
A|---------3-----------------------------------------------| 
E|-3---------------8-------8-------------------------------| 
      Bbm            Eb      C7/Eb 
e|-------6-------------6-----------------------------------| 
B|-6-8-9---6-----6-8-9---6-5-------------------------------| 
G|-6-6-6---6---6-6-6-6---6-6-------------------------------| 
D|-6-------6-6---6-------6-5-------------------------------| 
A|---------------6-------6-6-------------------------------| 
E|-6-------6-----------------------------------------------| 
      G#dim              Fm         Baug 
e|---------3-4-6\3-3-3-----3-1-----------------------------| 
B|-4-----4-----------1---1-------9-------------------------| 
G|-5---5-------------1-1---------8-------------------------| 
D|-5-5---------------------------7-------------------------| 
A|---------------------------------------------------------| 
E|-4-----------------1---------1/7-------------------------| 
      Bbm            Eb            Gm              C      A7/C 
e|---------------6---------8-6-5-----5-3-----3-5-----5---5-| 
B|-6-----6-6-8-9---6-----6-----3---3-------3---3---3---2---| 
G|-6---6---6-6-6---6---6-------3-3-------3-----3-3-----3---| 
D|-6-6-----6-------6-6---------------------------------2---| 
A|-----------------6---------------------------3-------3---| 
E|-6-------6-------------------3---------------------------| 
       F       Bb    Am      D7 
e|---------------------0-----------------------------------| 
B|-5-6-5-6-5-3\1-1---1---4---------------------------------| 
G|-5-5-5-5-5-----0-0-----5---------------------------------| 
D|-5-7-5-7-5-----2-------4---------------------------------| 
A|-8-------------0-------6---------------------------------| 
E|---------6-----------------------------------------------| 
               Gm      A       Dm     C#m      Cm     D7/F 
e|-----3h5-5-6-5-6-5-------------------------------10----| 
B|---6-----3-3-3-3-6--8--6-----6-5-----5-4-----3-7-------| 
G|-5-------3-------6-----5---5---4---4---3---3---8-------| 
D|-----------------------7-7-----6-6-----5-5-----7-------| 
A|-----------------0-----5-------4-------3-------8-------| 
E|---------3---------------------------------------------| 
       Bb              A     Dm         Gaug 
e|-------1-5-6-5-6-5-----5-6-5-6-5-------------------------| 
B|-----3-----------6-6-8-6-6-6-6-5-------------------------| 
G|---2-------------6-----7-------4-------------------------| 
D|-------------------------------3-------------------------| 
A|-1---------------0---------------------------------------| 
E|-------------------------------3-------------------------| 
             Gm              C 
e|---------------3---------------3-------------------------| 
B|-3-2h3-6-----6-----6---6-----6-----6---------------------| 
G|-------3---3-----3---3-3---3-----3-----------------------| 
D|-------5-5-------------5-5-------------------------------| 
A|-----------------------3---------------------------------| 
E|-------3-------------------------------------------------| 
      C#dim            Eb 
e|-4-------4-------6-----8-6-------------------------------| 
B|-6-----6-----6---6---6-----9-8-6-------------------------| 
G|-5---5-----5---5-6-6-------------------------------------| 
D|-6-6-----------------------------------------------------| 
A|-4---------------6---------------------------------------| 
E|---------------------------------------------------------| 
       F 
e|-0-----------5-8-13--------------------------------------| 
B|-1-----1-6-8-----10--------------------------------------| 
G|-2---2-----------10--------------------------------------| 
D|-3-2-----------------------------------------------------| 
A|---------------------------------------------------------| 
E|---------------------------------------------------------| 
		  

Full key step upFull key step up
Half key step upHalf key step up
Half key step downHalf key step down
Full key step downFull key step down
auto scroll beats size up size down change color hide chords drawings
tab show chords e-chords YouTube Clip e-chords hide all tabs e-chords go to top tab

share