Black Tide

Shout

Black Tide

tabs Expert expert

by  INDESTRUCTIBLE

save to print version add songbook text version e-mail correct tuner
chordsukulelecavacokeyboardtabbassdrumsharmonicaflute Guitar Pro
close

there isn't a video lesson for this song

chords

Shout

	  		    Intro 
E-------------------| 
B-------------------| 
G-------------------| 
D-------------------| 
A-2-2--0-0--5-0-5-5-| 
E-0-0--0-0--0-0-0-0-| 

    Verse 
E-------------------------------------6-7-8-9-| 
B-----------------------------3-5-2-5---------| 
G---------5-------------5-7-4-----------------| 
D-----6-6-----------5-6-----------------------| 
A---5-----------4-3---------------------------| 
E-4---------4-6-------------------------------| 

    Bridge 
E-----------------------| 
B-----------------------| 
G-----------------------| 
D---------5-5-7-4-2-2-2-| 
A-x-x-x-x-5-5-7-4-2-2-2-| 
E-x-x-x-x-3-3-5-2-0-0-0-| 

    Chorus 
E---------------------| 
B---------------------| 
G---------------------| 
D-2-2-2-2-0-0-5-7-4-3-| 
A-2-2-2-2-0-0-5-7-4-3-| 
E-0-0-0-0-0-0-3-5-2-1-| 
		  

See also:

tabs Pantera - Cemetary Gates tabs Twisted Syster - Were not gonna take tabs Marilyn Manson - Disposable Teens tabs Dream Theater - Endless Sacrifice tabs Manowar - Brothers Of Metal tabs Alice Cooper - Poison
e-chords

Other versions:

tabs Black Tide - Shout tabs Tears For Fears - Shout tabs Disturbed - Shout 2000 tabs Disturbed - Shout 2000 (ver. 2) tabs Disturbed - Shout 2000 (ver. 3) tabs Vamps - Shout About It
auto scroll beats size up size down change color hide chords drawings
tab show chords e-chords YouTube Clip e-chords hide all tabs e-chords go to top tab

share