Black Tide

Show Me The Way

Black Tide

tabs Intermediate intermediate

by  INDESTRUCTIBLE

save to print version add songbook text version e-mail correct tuner
chordsukulelecavacokeyboardtabbassdrumsharmonicaflute Guitar Pro
close

there isn't a video lesson for this song

chords

Show Me The Way

	  		    Intro 
E-----------------------------------| 
B-----------------------------------| 
G-----------------------------------| 
D-2-2-----5-5---------2-2-2-2-------| 
A-4-4-7-7-5-5---------2-2-2-2-3-3-3-| 
E-2-2-5-5-3-3-0-0-0-0-0-0-0-0-3-3-3-| 

     Verse 
E---------------5-------------6-| 
B-------------3-------------5---| 
G-----------2-------------4-----| 
D-2-2-2-1-1-------------3-------| 
A-0-0-0-----------0-0-0---------| 
E-----------------0-0-0---------| 

     Bridge 
E---------------------| 
B---------------------| 
G-1-1-1-2-2-2---------| 
D-3-3-3-2-2-2-3-3-3-3-| 
A-2-2-2-0-0-0-3-3-3-3-| 
E-------------1-1-1-1-| 

     Chorus 
E-------------------------------| 
B-------------------2-2-2-------| 
G-------5-5-5-------2-2-2-------| 
D-2-2-2-5-5-5-3-3-3-2-2-2-3-3-3-| 
A-2-2-2-3-3-3-3-3-3-------3-3-3-| 
E-0-0-0-------1-1-1-------3-3-3-| 
		  

See also:

tabs Slipknot - Duality(ver 2) tabs Slipknot - Surfacing tabs Rainbow - Long Live Rock N' Roll tabs Dream Theater - As I Am tabs Pantera - Hollow tabs Slipknot - The Blister Exists
e-chords

Other versions:

tabs Emmerson Nogueira - Show Me The Way tabs Black Tide - Show Me The Way tabs Peter Frampton - Show me the way (intro)
auto scroll beats size up size down change color hide chords drawings
tab show chords e-chords YouTube Clip e-chords hide all tabs e-chords go to top tab

share