Black Tide

Shockwave

Black Tide

tabs Beginner beginner

by  INDESTRUCTIBLE

save to print version add songbook text version e-mail correct tuner
chordsukulelecavacokeyboardtabbassdrumsharmonicaflute Guitar Pro
close

there isn't a video lesson for this song

chords

Shockwave

	  		Intro 

E------------------------------------------| 
B------------------------------------------| 
G------4-4-3-3-2-2-----4-4-3-3-2-----------| 
D--2-2-4-4-3-3-2-2-2-2-4-4-3-3-2-2----14p1-| 
A--2-2-4-4-3-3-2-2-2-2-4-4-3-3-2-2----14p1-| 
E--0-0-------------0-0-----------0---------| 

Repeat 3 times 

Verse 1 

E--------------------------------------------------| 
B----------------------------------------------12--| 
G------4-3-3-2-2-1-----4-3-3-2-2-1--------------12-| 
D------4-3-3-2-2-1-----4-3-3-2-2-1-----------------| 
A-----------------------------------1-1-1-1-1-1----| 
E--1-1-------------1-1--------------1-1-1-1-1-1----| 


Verse 2  

E------------------| 
B------------------| 
G------4-4-3-3-4-4-| 
D------4-4-3-3-4-4-| 
A--1-1-------------| 
E--1-1-------------| 

Bridge 

E----------------| 
B--------------12| 
G--------------12| 
D----------------| 
A--1-1-2-2-1-1---| 
E--1-1-1-1-1-1---| 

Chorus 

E--------------------------------------| 
B--------------------------------------| 
G--------------------------------------| 
D----------------------------------3-2-| 
A--2-2-2-2-2-2-2--4-3-4-4--2-2-2-2-3-2-| 
E--2-2-2-2-2-2-2--4-3-4-4--2-2-2-2-----| 
		  

See also:

tabs Pantera - Cemetary Gates tabs Twisted Syster - Were not gonna take tabs Marilyn Manson - Disposable Teens tabs Dream Theater - Endless Sacrifice tabs Manowar - Brothers Of Metal tabs Alice Cooper - Poison
e-chords

Other versions:

tabs Black Tide - Shockwave
auto scroll beats size up size down change color hide chords drawings
tab show chords e-chords YouTube Clip e-chords hide all tabs e-chords go to top tab

share