Black Sabbath

home > Black Sabbath

Time Machine Tab

Black Sabbath

Difficulty: BeginnerBeginner

by drummer%5Fcometh

tuner correct add songbook print version text version save to e-mail
chordsukulelecavacokeyboardtabbassdrumsharmonicsflute Guitar Pro
chords

Time Machine

Year: 1992 - Album: Dehumanizer

  		|------------------------------------------------------- 
 
|------------------------------------------------------- 
 
|----------5-----4-------------------------------------- 
 
|----------5-----4-------------------------------------- 
 
|----4-4-4-3-----2-p0-4-4-4-3--4-4-4-4-4-4-4-4-4-4-4----- 
 
|--0h2-2-2------------2-2-2-1--2-2-2-2-2-2-2-2-2-2-2----- 
 
  
 
  
|------------------------------------------------------------ 
 
|------------------------------------------------------------ 
 
|-------2-----------------4--2h4--------2-------------------- 
 
|-------2-----------------4--2h4--------2-------------------- 
 
|-4-4-4---4-4-4-4-4-4-4-4---------4-4-4---4-4-4-4-4-4-------- 
 
|-2-2-2---2-2-2-2-2-2-2-2---------2-2-2---2-2-2-2-2-2-0-0h1-- 
 
  
 
|------------------------------------------------------- 
 
|------------------------------------------------------- 
 
|-----------------2--2-2--5-4--------------------------- 
 
|-----------------2--2-2--5-4-5------------------------- 
 
|-------4-3-2-0---0--0-0--3-2-5------------------------- 
 
|-0-1-2-----------------------3------------------------- 
 
  
 
  
 
|--------------------------------------------- 
 
|--------------------------------------------- 
 
|---------------9--9-9--8--8-8--7--7-7--6----- 
 
|---------------9--9-9--8--8-8--7--7-7--6--7-- 
 
|-------4-3-2-0-7--7-7--6--6-6--5--5-5--4--7-- 
 
|-0-1-2------------------------------------5-- 
 
  
 
|--------------------------------------------------- 
 
|--------------------------------------------------- 
 
|------------------------------------2------5-4----- 
 
|------------------------------------2------5-4----- 
 
|-4---4-0-4-4-4-4-4-4-4-0-4---4-0-4--0---4--3-2----- 
 
|-2p0-2---2-2-2-2-2-2-2---2-0-2---2----0h2---------- 
 
  
 
  
|------------------------------------------------------------------------ 
 
|------------------------------------------------------------------------ 
 
|-9--9-9----------------7--7-7---------------6--6-6---------------2-2-4-- 
 
|-9--9-9---------7p6----7--7-7--------7p6----6--6-6--------7p6----2-2-4-- 
 
|-7--7-7-----5h7-----7--5--5-5----5h7-----7--4--4-4----5h7-----7--0-0-2-- 
 
|----------7--------------------7--------------------7------------------- 
 
  
 
|------------------------------------------------------- 
 
|------------------------------------------------------- 
 
|------------------------------------------------------- 
 
|--------------------------------4---------------------- 
 
|----7-6---6-5---5-4---4-3---3-2-4---------------------- 
 
|--0-----0-----0-----0-----0-----2---------------------- 
	  

Search Paypal
auto scroll beats size up size down change color hide chords drawings
tab show chords e-chords YouTube Clip e-chords hide all tabs e-chords go to top tab