Black Sabbath

home > Black Sabbath

The Waring Tab

Black Sabbath

Difficulty: nolevelnolevel

tuner correct add songbook print version text version save to e-mail
chordsukulelecavacokeyboardtabbassdrumsharmonicsflute Guitar Pro
chords

The Waring

  		|-----------------------------------------------0--------
|--------------------------------------------0-----------
|-----------------0-----------------------0--------------
|--------4-----4-----4-----------4-----4-----------------
|-----7-----7-----------7-----7-----7--------------------
|--0-----------------------0-----------------------------

|-----------------------------|--------------------------
|-----------------------------|--------------------------
|--------------------------/9-|--------------------------
|----------7-----7-9p7---7----|---------7-----7-9^-7-----
|------------7/9-------9------|-----------7/9------------
|--3/5-3/5--------------------|-3/5-3/5------------------

|------------------------|---------------------------------
|------------------------|---------------------------------
|------------------------|---------------------------------
|-----7--5--4h5p4--------|-----7--5--4h5p4-----------------
|--0---------------5-/-7-|--0--------------5/7-------------
|------------------------|---------------------------------

|---------------------------|----------------------------
|---------------------------|----------------------------
|---------------------------|--10~~~~--------------------
|--12-------7-------10------|----------12----------------
|--12-------7-------10------|----------------------------
|--10-------5--------8------|----------------------------

|----------------|---------------|----10----10------10----------
|----------------|---------------|----------------10---13-13^---
|----------------|----------10~~-|-12^---12^---12^--------------
|--12p10---10-12-|-12p10h12------|------------------------------
|-------12-------|---------------|------------------------------
|----------------|---------------|------------------------------

|-10------------|-----10--|-----13^-13-|-101310------10-|-------10----
|---13-101210---|-10------|--10--------|-------13-13^---|-13^~-----13-
|------------12-|---------|------------|----------------|-------------
|---------------|---------|------------|----------------|-------------
|---------------|---------|------------|----------------|-------------
|---------------|---------|------------|----------------|-------------

|-----------------|---------------------|---------------|-----------------
|-101210-------10-|-13p10---------------|---------------|-----------------
|-------12-12^----|------12p10-12p10----|---------------|-10--------------
|-----------------|------------------12-|-12p10---10-12-|----12-12p10-----
|-----------------|---------------------|------12-------|-------------12--
|-----------------|---------------------|---------------|-----------------

|--------------|-------------------|----------------|--------------
|--------------|-------------------|----------------|--------------
|--------------|-------------------|-10-10----------|-------10-10--
|-----12p10----|-12p10----12p10----|-------12p10----|-10h12--------
|-----------12-|-------12-------12-|-------------12-|--------------
|--------------|-------------------|----------------|--------------

|------------|-------------------|------------------|-----------------
|---------10-|-13p10----13p10----|-13p10---13p10----|-13p10-10-10-10--
|-----12^----|------12^------12^-|------12^-----12^-|-----------------
|------------|-------------------|------------------|-----------------
|------------|-------------------|------------------|-----------------
|------------|-------------------|------------------|-----------------

|------------------|-------10----|----------|-----13^-13-|
|--13p10-----------|----------10-|-13-13^---|--10--------|
|-------12-12p10---|-12^---------|----------|------------|
|---------------12-|-------------|----------|------------|
|------------------|-------------|----------|------------|
|------------------|-------------|----------|------------|

|-10h13p10-------10-|--------10----|------------------|---------------|
|---------13-13^----|-13^~~-----13-|-12p10------------|---------------|
|-------------------|--------------|------12--12p10---|---------------|
|-------------------|--------------|---------------12-|-12p10---------|
|-------------------|--------------|------------------|------12--10-8-|
|-------------------|--------------|------------------|---------------|

|-----------------|----------------|------------|-----------------------|
|-----------------|----------------|------------|-----------------------|
|-----------------|-10-10----------|------------|---(12b15r14r13)-12-12-|
|-----10--12p10---|--------12p10---|-10--12--12-|-----------------------|
|-/12----------12-|-------------12-|------------|-----------------------|
|-----------------|----------------|------------|-----------------------|

|-----------------|----------------|-----------|-----------------
|-----------------|----------------|--------13-|-15p13--15^-15^--
|--12p10----------|----------------|----/14----|------14---------
|--------12-12-12-|-12p10----10-12-|-----------|-----------------
|-----------------|-------12-------|-----------|-----------------
|-----------------|----------------|-----------|-----------------

|--------------------|----------------|-10----10--10-|
|-15^-~~~---15-15p13-|----------------|----13--------|
|--------------------|-14--12-12-12^-|--------------|
|--------------------|----------------|--------------|
|--------------------|----------------|--------------|
|--------------------|----------------|--------------|

|----------10----|-------------------|---------------------|
|-13^-~~~-----13-|-101210---------10-|-13p10---------------|
|----------------|--------12-12^-----|-------12--101210----|
|----------------|-------------------|------------------12-|
|----------------|-------------------|---------------------|
|----------------|-------------------|---------------------|

|--------10----|--13^--13^--|-13^---13-101310-|----10-----10----
|-----10----10-|------------|-----------------|-13----13^-------
|-12^----------|------------|-----------------|-----------------
|--------------|------------|-----------------|-----------------
|--------------|------------|-----------------|-----------------
|--------------|------------|-----------------|-----------------

|---10----|--------------------|------------------|----------------------
|------13-|-12p10----10--13p10-|------------------|----------------------
|---------|------12------------|-12p10------------|----------------------
|---------|--------------------|------12--12p10---|----------------------
|---------|--------------------|---------------12-|--1210--8--8h10-8h10-
|---------|--------------------|------------------|----------------------

|------------|---------------|----------------|------------
|------------|---------------|----------------|------------
|------------|-10-10---------|----------------|-10-10~~~---
|----12p10---|-------12p10---|-10-10-10-10h12-|------------
|---------12-|------------12-|----------------|------------
|------------|---------------|----------------|------------
                                                


|--------------------|----------------13^--|--13-10---------------------
|-8/10---------------|-13^-^-^-----10------|--------13-10---------------
|---------12^--12-10-|---------------------|--------------12^p10--10----
|--------------------|---------------------|----------------------------
|--------------------|---------------------|-------------------------12-
|--------------------|---------------------|----------------------------


|---------------------------------|--------------------------------
|--------------10----------------|---10--------------------------
|-------10-----10------12^--10---|---10-----------10-------------
|----------12------------------12-|--------------------12----------
|-10h12---------------------------|-----------10h12----------------
|---------------------------------|--------------------------------


|-------------------------------------------------------
|-------------------------------------------------------
|-------------------------------------------------------
|-------------------------------------------------------
|-3--3-3-3-4-|-5--5-5-5---5-5-5-------------------------
|-1--1-1-1-2-|-3--3-3-3---3-3-3-and so on...------------


|--------10------------|-------10------------------------
|-----10----13^-^-^-^--|-----10--13-10-------------------
|--13------------------|---13---------12^p10-12-10~~-----
|----------------------|---------------------------------
|----------------------|---------------------------------
|----------------------|---------------------------------

							
|-13^---13-13^-|-13-10----------------------|-------------
|--------------|------13-10-----------------|-------------
|--------------|-----------12^p10-12-10-----|-------------
|--------------|----------------------------|-------------
|--------------|------------------------12--|-------------
|--------------|----------------------------|-------------


|-----10--------------------------------|------10--------------------------
|---10----13-10-------------------------|----10--10-13-10------------------
|-12-----------12^p10-12p10----10h12-10-|--12------------12^p10-12--10h12--
|---------------------------12----------|-------------------------12-------
|---------------------------------------|----------------------------------
|---------------------------------------|----------------------------------

|-----------------------|-------13-15^-15^-------|
|-------------13-15--13-|-13-15------------15p13-|
|-10-----12/14-----14---|------------------------|
|-----------------------|------------------------|
|-----------------------|------------------------|
|-----------------------|------------------------|

|--------10--------------------------|--------------------------------|
|---10-13--13------------------------|--------------------------------|
|-13-----------13-12p10-12^p10-12-10-|----------10--------------------|
|------------------------------------|----10-12-----12p10-------------|
|------------------------------------|---------------------12-10-8-10-|
|------------------------------------|--------------------------------|

|---------------------------|--------------10------------|
|---------------------------|------------10---13p10------|
|-----------10-12-12^p10----|----------13----------12p10-|
|-------/12--------------12-|---12-----------------------|
|-8-------------------------|----------------------------|
|---------------------------|----------------------------|

|-------------------------------|------10------------13^---
|--------------------10---------|----10--13^-~~---10-------
|--------------------10---------|-12^----------------------
|---------10---10h12------10/20-|--------------------------
|-10h12-------------------------|--------------------------
|-------------------------------|--------------------------

|-13-10--------------------------|-------------------|
|-------13-10--------------------|----------10-------|
|-------------12-12^p10-12-10----|----------10-12-10-|
|--------------------------------|----10h12----------|
|-----------------------------12-|-------------------|
|--------------------------------|-------------------|

|------------10------|-----------------------------------|
|-----10-----10------|--------10----10----10-10-10----10-|
|-12^--------10------|--------10-12-10-12-10-12-10-12-10-|
|---------------------|--10h12----------------------------|
|---------------------|-----------------------------------|
|---------------------|-----------------------------------|

|----------10-----------13-|-15^-15-------------------------------|
|-----10---10-----13-15----|--------15-13--------13-15-13---------|
|-12^------10--------------|----------------13h14--------1312-10-|
|---------------------------|--------------------------------------|
|---------------------------|--------------------------------------|
|---------------------------|--------------------------------------|

|--------10---------10------------------|-----------------------------|
|-----------10-13^-----13---------------|-----------------------------|
|-12-12^------------------12^p10-12--10-|---------10------------------|
|----------------------------------12---|---10-12----12p10------------|
|---------------------------------------|------------------1210-8h10-|
|---------------------------------------|-----------------------------|

|-----------------------------------|------------10-------------|
|-----------------------------------|----------10---13p10-------|
|--------------------10-12-12^p10---|------12^------------12p10-|
|---------------10/12------------12-|-12------------------------|
|-8---------------------------------|---------------------------|
|-----------------------------------|---------------------------|

|-----------------------------/x--|--------10------/x-------13^-|
|---------------------10/--x/-----|-----10----13^/-------10-----|
|---------------------10/---------|-12^-------------------------|
|---------10----10h12-------------|-----------------------------|
|-10h12---------------------------|-----------------------------|
|---------------------------------|-----------------------------|

					     
|-13-10-----------------------|--------------------------
|-------13-10-----------------|--------------------------
|------------12^p10-12--10----|--------------------------
|--------------------------12-|--------------------------
|-----------------------------|--------------------------
|-----------------------------|--------------------------

|-1310-1310-13^--13--101310-------10-1310--13^-1310-1310-10---10-------------10-
|--------------------------10-13^--------------------------13---1310--10-13^----
|-------------------------------------------------------------------12----------
|-------------------------------------------------------------------------------
|-------------------------------------------------------------------------------
|-------------------------------------------------------------------------------

|---------------------------------101310-101310----------------|
|-1310--10----------------10-1310---------------10-------------|
|-----12--1210-121012-12^-------------------------1210-1012-10-|
|--------------------------------------------------------------|
|--------------------------------------------------------------|
|--------------------------------------------------------------|

|-----------------------------------------13^---|-1310-10-1310---10------
|---------------------------------------10------|-------------13^---1310-
|-------------------------------------10--------|------------------------
|-101210-12-10---------------1012---------------|------------------------
|--------------1210-8-10/12--------------------|------------------------
|-----------------------------------------------|------------------------

|-1310-101310---------------------|---------------------------------------------
|------------13-1310---10-1310----|---------------------------------------------
|-------------------12---------12-|-1210-1210-----------------------------------
|---------------------------------|----------12-1210-1210-10--------------------
|---------------------------------|-------------------------12-11-10/11-10-8----
|---------------------------------|-----------------------------------------10-

|-----------||--------------------------------------------
|-----------||-----------------------------12------------
|-----------||--------12-12-12-12~~~-------12------------
|--12---14--||--12h14----------------------14----(x 2)---
|--12---14--||--------------------------------------------
|--10---12--||--------------------------------------------

|---------------12---12-----------------15^-|-1512--12--1512--12-15121512-1512--12
|-------------12--12----15---15^--15-12-----|-----15--------15----------------15--
|-------12-14^------------------------------|-------------------------------------
|-12h14-------------------------------------|-------------------------------------
|-------------------------------------------|-------------------------------------
|-------------------------------------------|-------------------------------------

|-12-12-12-12---12-12-12-12---12-12-12-12-12-12-12-12---
|--------------------------------------------------12---
|-------------------------------------------------------
|-------------------------------------------------------
|-------------------------------------------------------
|-------------------------------------------------------

         
|-15^-15-(12--15----------------15^-1512--12-12-------1512-1512--
|--------)12------)12--1512--12---------15---12---1512-----------
|--------(14------(12--------------------------------------------
|----------------------------------------------------------------
|----------------------------------------------------------------
|----------------------------------------------------------------

|---------------12------------15^-|
|-1512--15-15^-----1512----12-----|
|-----14----------------14--------|
|---------------------------------|
|---------------------------------|
|---------------------------------|

|-1512--12-1512---12-----12--------------------------------------
|-----15-------15-15--15^-----1512---12-1512-1512----------------
|---------------------------------14---------------14^-14^-------
|----------------------------------------------------------(12)--
|----------------------------------------------------------------
|----------------------------------------------------------------

|----------------15^--1512----12-15--12-------------------------------------
|-1512-1512-1512-----------15-----------15^--15-12-15-12-12-----------------
|----------------------------------------------------------14--1412--12-----
|------------------------------------------------------------------14--14---
|---------------------------------------------------------------------------
|---------------------------------------------------------------------------

|-------------------------------------------------------------
|-------------------------------------------------------------
|----------------------------12^------------------------------
|-1412----12-14------12---14-----1214-12----------------------
|------14-------1214-----------------------1412--10--12/14---
|-------------------------------------------------------------

|----------------------------------------------------------------------------
|----------------------------------------------------------------------------
|-------12----------------------------------12-------------------------------
|-12-14----1214-12-----12----------------12----1214-12----12-----------------
|-----------------1214----1412-10-12h14--------------1214---1412-10--------
|---------------------------------------------------------------------10/12--

|-------------------------------------------------------
|-------------------------------------------------------
|-------12-------12-------12--14^-14-12----------(x 4)--
|-12h14----12h14----12h14-------------------------------
|-------------------------------------------------------
|-------------------------------------------------------

|------12------------------15^--15^^^-12-1512---|-1512-----------------12--------
|----12---15-15^-----15-12-------------------15-|-----15-1512--------12--1512----
|-14^-------------------------------------------|-------------14-14^---------14--
|-----------------------------------------------|--------------------------------
|-----------------------------------------------|--------------------------------
|-----------------------------------------------|--------------------------------

|------------------------------------12-|------12-----12----------
|---------------------------------12----|----12-----12--15^--15^--
|-1214121412-----------------14^--------|-14^----14^--------------
|------------1412----1214---------------|-------------------------
|-----------------14--------------------|-------------------------
|---------------------------------------|-------------------------

|-12----------12-------|------------------12--------|-----12----------------------
|---15-12---12--1512---|-12-12-1512----------1512---|--------1512-----------------
|--------14^--------14-|-----------14-14^--------14-|-14^--------14-14^-12-14--12-
|----------------------|----------------------------|-----------------------------
|----------------------|----------------------------|-----------------------------
|----------------------|----------------------------|-----------------------------

|-----12-----12-----------------|---------------------|
|---------------15-15-121412----|---------------------|
|-14^----14^-----------------14-|-14^--14^--14^^-1214-|
|-------------------------------|---------------------|
|-------------------------------|---------------------|
|-------------------------------|---------------------|

|----------------------|---------------------------------
|----------------------|---------------------------------
|-12-------------12----|---------------------------------
|-----1412--1214----14-|-----------14--------------------
|---------14-----------|-----12-14----14----------------
|----------------------|-------------------0-------------

|-------------------------------------------------------
|-------------------------------------------------------
|-------------------------------------------------------
|---------0h2-----------------------------------0h2-----
|---0h2-----------------------------------0h2-----------
|-0-----3-----0-0-0-0-0-0-0-0-0-0-0-0-0-0-----3---------

|-------------------------|------------------------------
|-------------------------|------------------------------
|------------4^--2h4---4--|--/9-------------4^--2h4---4-
|---------2---------------|---------------2--------------
|---0h2-------------------|---------0h2------------------
|-0-----3-----------------|-------3-----3----------------

|-------------------------10^-10^-10^----10^^^------------------
|-----8-----8---10^p8------------------------------8---10^-8----
|-4/9---9-----9-------9------------------------9-----9----------
|---------------------------------------------------------------
|---------------------------------------------------------------
|---------------------------------------------------------------

|----15^-15p12----15p12----------12--------------------
|-12-----------12-------12-12h15----15p12----12--------
|-----------------------------------------14-12--------
|------------------------------------------------------
|------------------------------------------------------
|------------------------------------------------------

|-----------------12-----------------------------------
|--------------12----15p12-----------------12----------
|-------12-14^-------------14-121412141214-12----------
|-12h14------------------------------------------------
|------------------------------------------------------
|------------------------------------------------------

|------------------------------------------------------
|---------------------------------12-------------------
|---------------------12----------12-------------------
|-(12)h14p12----12h14----14p12h12----------------------
|------------14----------------------------------------
|------------------------------------------------------

|------------------------------------------------------
|----------12----------------------------12-12---------
|----------12----------------------------12-12---------
|-14p12-------14p12----------12-14p12h14---------------
|-------14----------14-12h14---------------------------
|------------------------------------------------------
                              
|------------------------------------------------------
|----------12-12--------12-15--------------------------
|----------12-12----14^-------14^--14^--14^------------
|-14p12h14-------14------------------------------------
|------------------------------------------------------
|------------------------------------------------------

|------------------------------------------------------
|--------------------------------------12-------------
|-12-14-12h14-12~----------------------12-------------
|------------------------------------------------------
|------------------------------------------------------
|------------------------------------------------------


|------------------------------------------------------
|------------------------------------------------------
|----x----2-0------x------2-0------x------2-0----------
|----x----2-0------x------2-0------x------2-0----------
|----x--x-----x----x-x--x-----x----x-x--x-----x--------
|-3^-0--0-----0-3^---0--0-----0-3^---0--0-----0-3^/----


-------3-5p3-------------------------------------------
----3h5-----5-5p3--------------------------------------
--4---------------4-4s2--0-2/4-4-4p2-------------------
-------------------------------------2-2p0-------------
------------------------------------------2-2p0--------
------------------------------------------------3------


|------------------------------------------------------
|------------------------------------------------------
|-0-------------0------------0-------------------------
|---2p0---2p0------2p0---0h2---2p0---0h2-0-------------
|-------2-----2--------2-----------2-------2p0---------
|----------------------------------------------3^------

|------12--------------------12-15^-15-121512------------------
|----12--15^--15^-15-12----12-----------------15-15p12---------
|-14^-------------------14^----------------------------14-12--
|--------------------------------------------------------------
|--------------------------------------------------------------
|--------------------------------------------------------------

|------12----------------------------------------------------------
|----12---15p12----------------------------------------------------
|-14^-----------14-12~------------12----12-------------------------
|------------------------14p12----12h14----14p12-------------------
|------------------------------14----------------14-12--2----0----
|----------------------------------------------------------3^------


|--0--0--0--0--0--0--0---0---0--0---0---0--0--0---0---0---0---0---0--
|---0--0--0--0--0--0--0---0---0--0---0---0--0--0---0---0---0---0---0-
|--------------------------------------------------------------------
|-2--4--5--7--5--7--9--12--14--9--12--14--7--9--12--14--14--14--14---
|--------------------------------------------------------------------
|--------------------------------------------------------------------
                               
|--0--0--0--0--0--0--0--0--0--0--0--0--0--0--0--0--0---0---0----0----0--
|---0--0--0--0--0--0--0--0--0--0--0--0--0--0--0--0--0---0---0----0----0-
|-----------------------------------------------------------------------
|-7--9--9--9--7--9--4--2--4--2--4--2--4--2--4--7--9--12--14---14---14---
|-----------------------------------------------------------------------
|-----------------------------------------------------------------------


|-------||---------------------------------------------
|-------||---------------------------------------------
|-------||---------------------------------------------
|-------||---------------------------------------------
|-------||---0-2-0h2p0-0-2-0h2p0-0-2-0-----------------
|-17--||-----------------------------3-0-0-----------


|--------------------------------
|--------------------------------
|--------------------------------
|-----5-7-7^-5h7p5-5h7-5---------
|-5h7--------------------7-------
|--------------------------7----


|------12-----------12--------------------------------------
|----12--12-15^-15^----15-12h15p12----------------12--------
|-14^------------------------------12-12h14p12----12--------
|----------------------------------------------14-----------
|-----------------------------------------------------------
|----------------------------------------------------(14)--

|---------------------------------------------------------------
|---------------------------------------------------------------
|---------------------------------------------------------------
|---------------------------------------------------------------
|0-2-0h2p0-0-2-0h2p0-0-2-0h2p0-0-2-0h2p0-0-2-0h2p0-0-2-0--------
|--------------------------------------------------------3^~~~--
                                               
								
|-----||-----------------------------------------------
|-----||-----------------------------------------------
|-----||-9-9-7-9---9-9-7-9--9-9-7-9--9-9-7-9-----------
|(9)--||-9-9-7-9---9-9-7-9--9-9-7-9--9-9-7-9-----------
|-7---||-7-7-5-7---7-7-5-7--7-7-5-7--7-7-5-7-----------
|-0---||-----------------------------------------------

|------------------------------------------------------
|------------------------------------------------------
|------------------------------------------------------
|------------------------------------------------------
|-12-12-12-------10-10-10-----12-12-12----10-10-10-----
|-10-10-10--------8--8--8-----10-10-10-----8--8--8-----

|------------------------------------------------------
|------------------------------------------------------
|--------------109------------------------------------
|-10/12-------------109-9-9h10p9-9-9/12-12------------
|------------------------------------------------------
|------------------------------------------------------



|-10----13^-13-10h13p10------------------------------------------------
|----13-----------------13---------------------------------------------
|--------------------------10p9--10p9-10p9-----------------------------
|------------------------------------------12p10-12p10-----------------
|------------------------------------------------------12-10p9------12-
|-------------------------------------------------------------------10-


_______________________________________________________
Contribuição: Alceu Cintra De Oliveira Neto(AlceuKornSoadRageCypress)([email protected])
	  

Search Paypal
auto scroll beats size up size down change color hide chords drawings
tab show chords e-chords YouTube Clip e-chords hide all tabs e-chords go to top tab