Black Sabbath

home > Black Sabbath

Snowblind Tab

Black Sabbath

Difficulty: AdvancedAdvanced

by %2A%2A%2AOzzy%2A%2A%2A

tuner correct add songbook print version text version save to e-mail
chordsukulelecavacokeyboardtabbassdrumsharmonicsflute Guitar Pro
chords

Snowblind

Year: 1990 - Album: Greatest Hits 1970-1978

  		Main Riff 
  E5  F#5 G5  D5  E5     C                            D 
e-------------------------------------0----------------------2---2-------= 
----* 
B----------------------------------1-----1----------------3---------3----= 
----* 
G-------------------------------0-----------0----------2---------------2-= 
----* 
D--9--11--12---7---9---------2-----------------0----0--------------------= 
-0--* 
A--7---9--10---5---7---0--3----------------------------------------------= 
----* 
E------------------------------------------------------------------------= 
----* 
=0D 
:17 seconds into the song this is played 
e------------------------------------* 
B------------------------------------* 
G------------------------------------* 
D--9--9-----9------7--7--------------* 
A--7--7--0--7---0--5--5---5/7--10----* 
E-- ---------------------------------* 
=0D 
:41 seconds into this song this is played 
e----------------------------------------0------* 
B----------------------------1--------3---------* 
G-------------------------2--------2------------* 
D----------------------3--------0---------------* 
A--7----------0-----0---------------------------* 
E-----10---9------------------------------------* 
=0D 
1:40 into the song this is played 
e----------0-----------------------------------0------------------0------= 
* 
B--------0---0-------------0-------0---------0---0--------------0---0----= 
* 
G------0-------0---------0-------0---------0-------0----------0-------0--= 
* 
D----9-----------9-----7-------5---------5-----------5------4------------= 
* 
A--7-----------------5-------4---------3------------------2--------------= 
* 
E------------------------------------------------------------------------= 
* 
=0D 
solo at 2:21 
e----------------------------12------------------------------------ 
B--12--15--15b-15b-15b-15b-------15---12--------------------------- 
G------------------------------------------15--14--12-------------- 
D------------------------------------------------------\7--5------- 
A------------------------------------------------------------------ 
E------------------------------------------------------------------ 
=0D 
e------------------------------------------------------------------ 
B------------------------------------------------------------------ 
G---------------------------------------------5-------------------- 
D-------5--7--7b-7b-7b--7--5--7----------5------7---------5--7----- 
A--5h7---------------------------7--5h7-----7-------5h7------------ 
E------------------------------------------------------------------ 
 = 
 
e------------------------------------------------------------------ 
B------------------------------------------------------------------ 
G------------------------------------------------------------------ 
D--7b-7b--7--5--7b--7--5h7-----------5------5---------5--7--------- 
A---------------------------7--5h7------7------7--5h7-------------- 
E------------------------------------------------------------------ 
=0D 
e---------------------------------------------------------15b--15b-- 
B------------15b--15b--15b--15b--12--------------------------------- 
G-------------------------------------15--12------------------------ 
D--7b--7--5-----------------------------------15--14--12------------ 
A------------------------------------------------------------------- 
E------------------------------------------------------------------- 
=0D 
e--12-------12------------------------------------------* 
B------15b------15--12----------------------------------* 
G------------------------15--14--12---------------------* 
D-------------------------------------14\---------------* 
A-------------------------------------------------------* 
E-------------------------------------------------------* 
=0D 
3:28 this riff starts 
e-------------------------------------------------------------------* 
B-------------------------------------------------------------------* 
G-------------------------------------------------------------------* 
D----------------------------------------------------------7--7---7-* 
A--7---7h10p7h10--7----7---7h10p7h10--7----7---7h10p7h10---5--5---5-* 
E-------------------------------------------------------------------* 
	  

Full key step upFull key step up
Half key step upHalf key step up
Half key step downHalf key step down
Full key step downFull key step down
Search Paypal
auto scroll beats size up size down change color hide chords drawings
tab show chords e-chords YouTube Clip e-chords hide all tabs e-chords go to top tab