Black Sabbath

home > Black Sabbath

Snow Blind Tab

Black Sabbath

Difficulty: BeginnerBeginner

tuner correct add songbook print version text version save to e-mail
chordsukulelecavacokeyboardtabbassdrumsharmonicsflute Guitar Pro
chords

Snow Blind

  		riff 1

|-------------------------------------------------------------------------------------
|-------------------------------------------------------------------------------------
|------------------------------6---------------8--------------------------------------
|-6---8---9----4---6---------7---7---7-------9---9---9--------------------------------
|-4---6---7----2---4-------7-------7-------9-------9----------------------------------
|------------------------5---------------7--------------------------------------------

riff 2

|-------------------------------------------------------------------------------------
|-------------------------------------------------------------------------------------
|-------------------------------------------------------------------------------------
|-6-(6)-6-(6)-6-----4-4-4-------------------------------------------------------------
|-4-(4)-4-(4)-4--4--2-2-2-------------------------------------------------------------
|----------------2--------------------------------------------------------------------

riff 3

|-------------------------------------------------------------------------------------
|-------------------------------------------------------------------------------------
|--------------------6---------8------------------------------------------------------
|-6-4-3------------7---------9--------------------------------------------------------
|-4-2-1-4-6------7---------9----------------------------------------------------------
|-------2-4----5---------7------------------------------------------------------------

riff 4

|-------------------------------------------------------------------------------------
|-------------------------------------------------------------------------------------
|-----6--------6-------4-------3--------6--------------5------------------------------
|---6---6----6---6---4---4---3--------7---7---7------6---6---6------------------------
|-4--------4-------2-------1--------7-------7------6-------6--------------------------
|---------------------------------5--------------4------------------------------------

riff 5

|-------------------------------------------------------------------------------------
|-------------------------------------------------------------------------------------
|-------------------------------------------------------------------------------------
|-----2-2------2-2-----2-2------------------------------------------------------------
|-4-4------4-4-----4-4------2-2-2-2-2-------------------------------------------------
|-------------------------------------------------------------------------------------

solo

|---7-9-9-9-9---9-7-------------------------------------------------------------------
|-9-----------------9-7---------------------------------------------------------------
|-----------------------9-6-----------------------------------------------------------
|-------------------------------------------------------------------------------------
|----------------------------7>9--7-----7>9---11-11-11-11-11>9-7----------------------
|-----------------------------------7>9---------------------------9-------------------

|-------3x------|-------9-9-9-9--9-7-------------14-12--12----------------------------
|---------------|--------------------9-7-------------------14-12----------------------
|---------------|------------------------9-6---------------------14-11----------------
|---------------|------------------------------------------------------14-11----------
|-----7---9>7---|---------------------------------------------------------------------
|-7-9---9-----9-|---------------------------------------------------------------------


>   ligado
()  nota morta

sequência da música
riff1 2x
riff2 6x
riff3 2x
riff2 6x
riff1 2x 
riff3 2x
riff4 4x
solo  com o riff4 na base
riff2 6x
riff3 2x
riff5 6x
riff2 6x


é isso ai
minha banda toca assim 
qualquer duvida entre em contato e-mail [email protected]
	  

Search Paypal
auto scroll beats size up size down change color hide chords drawings
tab show chords e-chords YouTube Clip e-chords hide all tabs e-chords go to top tab