Black Sabbath

home > Black Sabbath

Paranoid Tab

Black Sabbath

Difficulty: ExpertExpert

by pedrosmsoares

tuner correct add songbook print version text version save to e-mail
chordsukulelecavacokeyboardtabbassdrummharmonicsflute Guitar Pro
chords

Paranoid

Key:  Em More
Paranoid Key BmBm
Paranoid Key CmCm
Paranoid Key C#mC#m
Paranoid Key DmDm(one step down)
Paranoid Key D#mD#m(half step down)
Paranoid Key EmEm(original key)
Paranoid Key FmFm(half step up)
Paranoid Key F#mF#m(one step up)
Paranoid Key GmGm
Paranoid Key G#mG#m
Paranoid Key AmAm
Paranoid Key A#mA#m
  		
Intro: 

e|---------------------------------------------| 
B|---------------------------------------------| 
G|---------------------------------------------| 
D|---------------------------12h14-------12----| 
A|--12h14--12h14-12h14-12h14-------12h14----14-| 
E|--12-----12----12----------------------------| 

Verso: E5 D5 G5 D5 E5 G 

Ponte: E5 C5 D5  

Refrão: E5 D5 E5 D5  

Solo: 

e|--------------------------------------------------------------| 
B|--------------------------------------------------------------| 
G|--12r9-7-9-9p7-9p7---------------------------------7h9-9-7--9-| 
D|-------------------9/7-5h7-5h7-------5-----5h7-5/9------------| 
A|-------------------------------5h7-7---7-7--------------------| 
E|--------------------------------------------------------------| 

e|---12------------------15b17-15b17-15b17r15-15p12-15p12------15p12-| 
B|12---15b17-15b17-15-12----------------------------------15p12------| 
G|-------------------------------------------------------------------| 
D|-------------------------------------------------------------------| 
A|-------------------------------------------------------------------| 
E|-------------------------------------------------------------------| 

e|----------------12--------------------------------------------| 
B|-15p12-------12----15p12--------------------------------------| 
G|-------14b16-------------14-14p12----14b16r12-14b16-12h14-----| 
D|----------------------------------14----------------------14--| 
A|--------------------------------------------------------------| 
E|--------------------------------------------------------------| 

e|---------------------------------------------------------------| 
B|---------------------------------------------------------------| 
G|--12-------------------------------------------------12--------| 
D|-----14-12h14p12----12----------------------12-12h14----14-12--| 
A|-----------------14----12p10-12p10----12h14--------------------| 
E|-----------------------------------12--------------------------| 

e|--------------| 
B|-----------12-| 
G|--12-------12-| 
D|-----12-14----| 
A|--------------| 
E|--------------| 

	  

Full key step upFull key step up
Half key step upHalf key step up
Half key step downHalf key step down
Full key step downFull key step down
Search Paypal
auto scroll beats size up size down change color hide chords drawings
tab show chords e-chords YouTube Clip e-chords hide all tabs e-chords go to top tab