Black Sabbath

home > Black Sabbath

Live Forever Tab

Black Sabbath

Difficulty: nolevelnolevel

by jov%2Dcorrea

tuner correct add songbook print version text version save to e-mail
chordsukulelecavacokeyboardtabbassdrumsharmonicsflute Guitar Pro
chords

Live Forever

  		

Tuning: Eb Ab Db Gb Bb Eb 




TABBED BY andherembrace 



-----------------------------------------| 
-----------------------------------------| 
-----------------------------------------| 
-6------------2---5---6---6-5-4----------| 
-4--6-----2---0---3---4---4-3-2--7---6---| 
----4--3~-0----------------------5---4~--| 

--------------------------------------------| 
--------------------------------------------| 
---------------------------------------9--8-| 
-6------------2---5---6---6-5-4--------9--8-| 
-4--6-----2---0---3---4---4-3-2--7--6--7--6-| 
----4--3~-0----------------------5-\4-------| 



-----------------------------------------| 
-----------------------------------------| 
-----------------------------------------| 
-6------------2---5---6---6-5-4----------| 
-4--6-----2---0---3---4---4-3-2--7---6---| 
----4--3~-0----------------------5---4~--| 

--------------------------------------------| 
--------------------------------------------| 
---------------------------------------9--8-| 
-6------------2---5---6---6-5-4--------9--8-| 
-4--6-----2---0---3---4---4-3-2--7--6--7--6-| 
----4--3~-0----------------------5-\4-------| 



---------------| 
---------------| 
---------------| 
-6-------4-----| 
-4-------2-----| 
---------------| 






0:35 

-------------------------------------------------------------------------| 
-------------------------------------------------------------------------| 
---------------------------------2---------------------------------------| 
---------------------------------2--------------------------5--4--2------| 
---------------------------------0--------------------------3--2--0----2-| 
-2-2--0-1-2-2---0-1-2-2---0-1-2----0--2-2--0-1-2-2---0-1-2----------3~-0-| 


-------------------------------------------------------------------------| 
-------------------------------------------------------------------------| 
---------------------------------2---------------------------------------| 
---------------------------------2--------------------------5--4--2------| 
---------------------------------0--------------------------3--2--0----2-| 
-2-2--0-1-2-2---0-1-2-2---0-1-2----0--2-2--0-1-2-2---0-1-2----------3~-0-| 



--------------------------------------------------------------------------| 
--------------------------------------------------------------------------| 
---------------------------------2------------------------------------2---| 
---------------------------------2------------------------------------2---| 
---------------------------------0------------------------------------0---| 
-2-2--0-1-2-2---0-1-2-2---0-1-2----0--2-2--0-1-2-2---0-1-2-2---0-1-2----0-| 


-------------------------------------------------------------------------| 
-------------------------------------------------------------------------| 
---------------------------------2---------------------------------------| 
---------------------------------2--------------------------5--4--2------| 
---------------------------------0--------------------------3--2--0----2-| 
-2-2--0-1-2-2---0-1-2-2---0-1-2----0--2-2--0-1-2-2---0-1-2----------3~-0-| 



--------------------------------------------------------------------------| 
--------------------------------------------------------------------------| 
---------------------------------2------------------------------------2---| 
---------------------------------2------------------------------------2---| 
---------------------------------0------------------------------------0---| 
-2-2--0-1-2-2---0-1-2-2---0-1-2----0--2-2--0-1-2-2---0-1-2-2---0-1-2----0-| 


---------------------------------------------------------------| 
---------------------------------------------------------------| 
---------------------------------2-----------------------------| 
---------------------------------2-----------------------5-----| 
---------------------------------0-----------------------3--4--| 
-2-2--0-1-2-2---0-1-2-2---0-1-2----0--2-2--0-1-2-2---0-1----2--| 







1:20 

-----------------------------------------------------------------------| 
-----------------------------------------------------------------------| 
-----------------------------------------------------------------------| 
-4---------7-4-----4---7-7-7-7-7-6---4---------7-4-----4---7-7-7-7-7-9-| 
-2---4-5---5-2---0-2---5-5-5-5-5-4---2---4-5---5-2---0-2---5-5-5-5-5-7-| 
-----2-3---------------------------------2-3---------------------------| 

-----------------------------------------------------------------------| 
-----------------------------------------------------------------------| 
-----------------------------------------------------------------------| 
-4---------7-4-----4---7-7-7-7-7-6---4---------7-4-----4---7-7-7-7-7-9-| 
-2---4-5---5-2---0-2---5-5-5-5-5-4---2---4-5---5-2---0-2---5-5-5-5-5-7-| 
-----2-3---------------------------------2-3---------------------------| 






1:50 

-------------------------------------------------------------------------| 
-------------------------------------------------------------------------| 
---------------------------------2---------------------------------------| 
---------------------------------2--------------------------5--4--2------| 
---------------------------------0--------------------------3--2--0----2-| 
-2-2--0-1-2-2---0-1-2-2---0-1-2----0--2-2--0-1-2-2---0-1-2----------3~-0-| 


-------------------------------------------------------------------------| 
-------------------------------------------------------------------------| 
---------------------------------2---------------------------------------| 
---------------------------------2--------------------------5--4--2------| 
---------------------------------0--------------------------3--2--0----2-| 
-2-2--0-1-2-2---0-1-2-2---0-1-2----0--2-2--0-1-2-2---0-1-2----------3~-0-| 



--------------------------------------------------------------------------| 
--------------------------------------------------------------------------| 
---------------------------------2------------------------------------2---| 
---------------------------------2------------------------------------2---| 
---------------------------------0------------------------------------0---| 
-2-2--0-1-2-2---0-1-2-2---0-1-2----0--2-2--0-1-2-2---0-1-2-2---0-1-2----0-| 


-------------------------------------------------------------------------| 
-------------------------------------------------------------------------| 
---------------------------------2---------------------------------------| 
---------------------------------2--------------------------5--4--2------| 
---------------------------------0--------------------------3--2--0----2-| 
-2-2--0-1-2-2---0-1-2-2---0-1-2----0--2-2--0-1-2-2---0-1-2----------3~-0-| 



--------------------------------------------------------------------------| 
--------------------------------------------------------------------------| 
---------------------------------2------------------------------------2---| 
---------------------------------2------------------------------------2---| 
---------------------------------0------------------------------------0---| 
-2-2--0-1-2-2---0-1-2-2---0-1-2----0--2-2--0-1-2-2---0-1-2-2---0-1-2----0-| 


---------------------------------------------------------------| 
---------------------------------------------------------------| 
---------------------------------2-----------------------------| 
---------------------------------2-----------------------5-----| 
---------------------------------0-----------------------3--4--| 
-2-2--0-1-2-2---0-1-2-2---0-1-2----0--2-2--0-1-2-2---0-1----2--| 








2:35 


-----------------------------------------------------------------------| 
-----------------------------------------------------------------------| 
-----------------------------------------------------------------------| 
-4---------7-4-----4---7-7-7-7-7-6---4---------7-4-----4---7-7-7-7-7-9-| 
-2---4-5---5-2---0-2---5-5-5-5-5-4---2---4-5---5-2---0-2---5-5-5-5-5-7-| 
-----2-3---------------------------------2-3---------------------------| 

-----------------------------------------------------------------------| 
-----------------------------------------------------------------------| 
-----------------------------------------------------------------------| 
-4---------7-4-----4---7-7-7-7-7-6---4---------7-4-----4---7-7-7-7-7-9-| 
-2---4-5---5-2---0-2---5-5-5-5-5-4---2---4-5---5-2---0-2---5-5-5-5-5-7-| 
-----2-3---------------------------------2-3---------------------------| 



-------------------------| 
-------------------------| 
-------------------------| 
-9-7--7-6--6-5--5--------| 
-7-5--5-4--4-3--3---)----| 
-------------------5-----| 






3:10 

SOLO 

----__------------------------------------------------| 
---/  \-----------------------------14----------------| 
-14-16-14----14/13---------------14----14-16-14-------| 
----------16-------16-16~~-14-16----------------16~~--| 
------------------------------------------------------| 
------------------------------------------------------| 


3:14 

-------------------------------------------------------| 
-------------------------------------------------------| 
-------^-----------------------------------------------| 
~\14-16-14----14-----------------------^---------------| 
-----------16----16-15-14--14\12-14--15-12-------------| 
-------------------------------------------14-14~~~12--| 
                                                     | 


3:17 

-------------------------------------------------------------| 
---------------------)-14-17----14--------------)------------| 
-------14----16-14-16-------16----17-16-14----16--16~-14~----| 
-11/16----16-------------------------------16----------------| 
-------------------------------------------------------------| 
-------------------------------------------------------------| 



3:21 
   _______________ 
---)---|--|--|--|(------)()()-14-------------------------------| 
-17---17-17-17-17--17-17---------17-14----14-------------------| 
---------------------------------------16---14----16-14--------| 
-----------------------------------------------16--------14~~~-| 
---------------------------------------------------------------| 
---------------------------------------------------------------| 




3:25 

-----------------------------------------------| 
-----------------------------------------------| 
-----------------------------------------------| 
------16--16--16~~-------16--------------------| 
-/18---------------18-18----18-16-18-18~-16~---| 
-----------------------------------------------| 
    |    |   | 



3:28 
   ________ 
---)---|--|()()--^-----------------------------------| 
-20---20-20----20-16---16-----------------2step------| 
--------------------18----18-16----18-16---)---------| 
--------------------------------18-------16---16~~~--| 
-----------------------------------------------------| 
-----------------------------------------------------| 
        |       



3:32 

------------------------------------------------------| 
------------------------------------------------^-----| 
----------------------------------------18-16-18-16~~-| 
-----16-16~\-----16-16~-\-----16-16~-18---------------| 
-/18---------/18----------/18-------------------------| 
------------------------------------------------------| 


3:36 

   _________________          
---)-----|----|----|~~~~------------------------------| 
-20-----20---20---20------/21--\19--16----------------| 
---------------------------------------/20--\18--16---| 
------------------------------------------------------| 
------------------------------------------------------| 
------------------------------------------------------| 
      |    |    | 



3:41 

-------------_______------------------------| 
-------------)----|--17---)----------)~~~---| 
-------14--16----16-----16---16-14-16-------| 
-16~~---------------------------------------| 
--------------------------------------------| 
--------------------------------------------| 





3:45 

-------------------------------------| 
-------------------------------------| 
-------------------------------------| 
--6---------9-6-6---4-6-9-9-9-9-9-8--| 
--4---6-7---7\4-4---2/4-7-7-7-7-7-6--| 
------4-5----------------------------| 

-------------------------------------| 
-------------------------------------| 
-------------------------------------| 
--6---------9-6-6---4-6-9-9-9-9-9-11-| 
--4---6-7---7\4-4---2/4-7-7-7-7-7-9--| 
------4-5----------------------------| 


-------------------------------------| 
-------------------------------------| 
-------------------------------------| 
--6---------9-6-6---4-6-9-9-9-9-9-8--| 
--4---6-7---7\4-4---2/4-7-7-7-7-7-6--| 
------4-5----------------------------| 

-------------------------------------| 
-------------------------------------| 
-------------------------------------| 
--6---------9-6-6---4-6-9-9-9-9-9-11-| 
--4---6-7---7\4-4---2/4-7-7-7-7-7-9--| 
------4-5----------------------------| 





4:14 

--------------------------------------------------------------------------| 
--------------------------------------------------------------------------| 
--------------------------------------------------------------------------| 
--------------------------------------------------------------------------| 
---------------------------------2------------------------------------2---| 
-4-4---2-3-4-4---2-3-4-4---2-3-4---2--4-4---2-3-4-4---2-3-4-4---2-3-4---2-| 


--------------------------------------------------------------------------| 
--------------------------------------------------------------------------| 
--------------------------------------------------------------------------| 
--------------------------------------------------------------------------| 
---------------------------------2------------------------------------2---| 
-4-4---2-3-4-4---2-3-4-4---2-3-4---2--4-4---2-3-4-4---2-3-4-4---2-3-4---2-| 



--------------------------------------------------------------------------| 
--------------------------------------------------------------------------| 
--------------------------------------------------------------------------| 
--------------------------------------------------------------------------| 
---------------------------------2------------------------------------2---| 
-4-4---2-3-4-4---2-3-4-4---2-3-4---2--4-4---2-3-4-4---2-3-4-4---2-3-4---2-| 



---------------------------------------------------------------| 
---------------------------------------------------------------| 
---------------------------------------------------------------| 
---------------------------------------------------------------| 
---------------------------------2-----------------------------| 
-4-4---2-3-4-4---2-3-4-4---2-3-4---2--4-4---2-3-4-4---2-3-4-4--| 






solo fills 


4:22 
    )~~~~ 
--14--------------------------------------| 
--15-------15--15--15--15-----------------| 
-----------16--16--16--16-----------------| 
---------------------------18--18--18~~~--| 
------------------------------------------| 
------------------------------------------| 
             |   |   |   |   |   |    



4:30 

--)~~~~~~~~--------------------)~~~----------| 
-4---------------------------12--------------| 
-6---------------------------15-----p--------| 
-------------------------------------s-------| 
--------------------------------------\------| 
---------------------------------------------| 



4:37 
        __ 
--)----/  \---------------------------------| 
-4--7-4----\--------------------_-----------| 
-6------6-4-6-6-4--------------/ \---4------| 
------------------6~~~~~~~----4-5-6--4\-----| 
--------------------------------------------| 
--------------------------------------------| 
	  

Search Paypal
auto scroll beats size up size down change color hide chords drawings
tab show chords e-chords YouTube Clip e-chords hide all tabs e-chords go to top tab