Black Flag

White Minority

Black Flag

tabs

by  BURMO09

save to print version add songbook text version e-mail correct tuner
chordsukulelecavacokeyboardtabbassdrumsharmonicaflute Guitar Pro
close

there isn't a video lesson for this song

chords

White Minority

	  		Intro:  
|-----------------------------|r  
|-----------------------------|e  
|-----------------------------|p  
|--9--9--9--9--9--9-7-7-7-----|e  
|-11-11-11-11-11-11-9-9-9-7-9-|a  
|-------------------------5-7-|t  
 
|-----------------------------|r  
|-----------------------------|e  
|-----------------------------|p  
|-----------------------------|e  
|-9-9-9-9-9-9-9-9-9-7-8-9-----|a  
|-7-7-7-7-7-7-7-7-7-5-6-7-----|t  
 
Verse:  
|-----------------------------|r  
|-----------------------------|e  
|-----------------------------|p  
|-------------9-9-9-9-9-------|e  
|-9-9-9-9-9-9-7-7-7-7-7-------|a  
|-7-7-7-7-7-7-----------------|t  
 
Chorus:  
|-----------------------------|r  
|-----------------------------|e  
|-----------------------------|p  
|--9--9--9--9--9--9-7-7-7-----|e  
|-11-11-11-11-11-11-9-9-9-7-9-|a  
|-------------------------5-7-|t  
		  

See also:

tabs Fall Out Boy - Beat It tabs Bad Religion - American Jesus tabs Afi - Miss murder tabs Green Day - Holiday ( Easy Version) tabs Green Day - Time of your life (good ridance) tabs Blink 182 - Stay together for the kids (ver. 2)
e-chords

Other versions:

tabs Black Flag - White Minority
auto scroll beats size up size down change color hide chords drawings
tab show chords e-chords YouTube Clip e-chords hide all tabs e-chords go to top tab

share