Black Flag

Room 13

Black Flag

tabs

by  GUSTSILVA

save to print version add songbook text version e-mail correct tuner
chordsukulelecavacokeyboardtabbassdrumsharmonicaflute Guitar Pro
close

there isn't a video lesson for this song

chords

Room 13

	  		

Intro/Verse (0:00) "Keep me alive?" 
e|------------------------------------------------| 
B|-------------------11b-11b-11b-11b-11b--11b~----| 
G|------------------------------------------------| 
D|--7-7-7-7-7-7--7--------------------------------| 
A|--7-7-7-7-7-7--7--------------------------------| 
E|--5-5-5-5-5-5--5--------------------------------| x4 

e|---------------------------------------------------------| 
B|--------------------------------------------------8b9~---| 
G|--8-8-8-8-8-8--8---(9)-(9)-(9)---8-8-8-8-8-8--8----------| 
D|--8-8-8-8-8-8--8---(9)-(9)-(9)---8-8-8-8-8-8--8----------| 
A|--6-6-6-6-6-6--6---(7)-(7)-(7)---6-6-6-6-6-6--6----------| 
E|---------------------------------------------------------| 

e|------------------------------------------------| 
B|-------------------11b-11b-11b-11b-11b--11b~----| 
G|------------------------------------------------| 
D|--7-7-7-7-7-7--7--------------------------------| 
A|--7-7-7-7-7-7--7--------------------------------| 
E|--5-5-5-5-5-5--5--------------------------------| x4 

e|------------------------------------------------| 
B|------------------------------------------------| 
G|--8-8-8-8-8-8--8---(9)-(9)-(9)---8-8-8-8--------| 
D|--8-8-8-8-8-8--8---(9)-(9)-(9)---8-8-8-8--------| 
A|--6-6-6-6-6-6--6---(7)-(7)-(7)---6-6-6-6--------| 
E|------------------------------------------8b9~--| 


Chorus (0:28) "I need to belong?" 
e|-------------------------------------------| 
B|-------------------------------------------| 
G|-------------------------------------------| 
D|--7-7-7-7--10-10-10-10--9-9-9-9--8-8-8-8---|  
A|--7-7-7-7--10-10-10-10--9-9-9-9--8-8-8-8---| 
E|--5-5-5-5---8--8--8--8--7-7-7-7--6-6-6-6---| x3 

e|---------------| 
B|---------------| 
G|---------------| 
D|--7/8--2--6~---| 
A|--7/8--2--6~---| 
E|--5/6--0--4~---| 


verse 2 (0:38) 
e|------------------------------------------------| 
B|-------------------11b-11b-11b-11b-11b--11b~----| 
G|------------------------------------------------| 
D|--7-7-7-7-7-7--7--------------------------------| 
A|--7-7-7-7-7-7--7--------------------------------| 
E|--5-5-5-5-5-5--5--------------------------------| x4 

  Guitar 1 
e|---------------------------------------------------| 
B|---------------------------------------------------| 
G|--8-8-8-8-8-8--8---(9)-(9)-(9)---8-8-8-8-8-8--8----| 
D|--8-8-8-8-8-8--8---(9)-(9)-(9)---8-8-8-8-8-8--8----| 
A|--6-6-6-6-6-6--6---(7)-(7)-(7)---6-6-6-6-6-6--6----| 
E|---------------------------------------------------| 
 | 
 |Guitar 2 
e|---------------------------------------------7b8~--| 
B|---------------------------------11b12--7b8--------| 
G|---------------------------------------------------| 
D|---------------------------------------------------| 
A|---------------------------------------------------| 
E|---------------------------------------------------| 


e|------------------------------------------------| 
B|-------------------11b-11b-11b-11b-11b--11b~----| 
G|------------------------------------------------| 
D|--7-7-7-7-7-7--7--------------------------------| 
A|--7-7-7-7-7-7--7--------------------------------| 
E|--5-5-5-5-5-5--5--------------------------------| x4 

e|------------------------------------------------| 
B|------------------------------------------------| 
G|--8-8-8-8-8-8--8---(9)-(9)-(9)---8-8-8-8--------| 
D|--8-8-8-8-8-8--8---(9)-(9)-(9)---8-8-8-8--------| 
A|--6-6-6-6-6-6--6---(7)-(7)-(7)---6-6-6-6--------| 
E|------------------------------------------8b9~--| 


Chorus (1:06) 

Verse (1:16) 
e|------------------------------------------------| 
B|-------------------11b-11b-11b-11b-11b--11b~----| 
G|------------------------------------------------| 
D|--7-7-7-7-7-7--7--------------------------------| 
A|--7-7-7-7-7-7--7--------------------------------| 
E|--5-5-5-5-5-5--5--------------------------------| x4 

e|--------------------------------------------------| 
B|--------------------------------------------------| 
G|--8-8-8-8-8-8--8---(9)-(9)-(9)---8-8-8-8-8-8--8---| 
D|--8-8-8-8-8-8--8---(9)-(9)-(9)---8-8-8-8-8-8--8---| 
A|--6-6-6-6-6-6--6---(7)-(7)-(7)---6-6-6-6-6-6--6---| 
E|--------------------------------------------------| 

e|------------------------------------------------| 
B|-------------------11b-11b-11b-11b-11b--11b~----| 
G|------------------------------------------------| 
D|--7-7-7-7-7-7--7--------------------------------| 
A|--7-7-7-7-7-7--7--------------------------------| 
E|--5-5-5-5-5-5--5--------------------------------| x4 

e|------------------------------------------------| 
B|------------------------------------------------| 
G|--8-8-8-8-8-8--8---(9)-(9)-(9)---8-8-8-8--------| 
D|--8-8-8-8-8-8--8---(9)-(9)-(9)---8-8-8-8--------| 
A|--6-6-6-6-6-6--6---(7)-(7)-(7)---6-6-6-6--------| 
E|------------------------------------------8b9~--| 


Chorus/Outro (1:45) 
e|-------------------------------------------| 
B|-------------------------------------------| 
G|-------------------------------------------| 
D|--7-7-7-7--10-10-10-10--9-9-9-9--8-8-8-8---|  
A|--7-7-7-7--10-10-10-10--9-9-9-9--8-8-8-8---| 
E|--5-5-5-5---8--8--8--8--7-7-7-7--6-6-6-6---| x2 
   
  Guitar 1 
e|-------------------------------------------| 
B|-------------------------------------------| 
G|-------------------------------------------| 
D|--7-7-7-7--10-10-10-10--9-9-9-9--8-8-8-8---|  
A|--7-7-7-7--10-10-10-10--9-9-9-9--8-8-8-8---| 
E|--5-5-5-5---8--8--8--8--7-7-7-7--6-6-6-6---| 
 | 
 |Guitar 2 
e|---------------------------| 
B|--5--4--3--2---------------| 
G|--------------5--4--3--2---| 
D|---------------------------| 
A|---------------------------| 
E|---------------------------| 
  

e|---------------| 
B|---------------| 
G|---------------| 
D|--7/8--2--6~---| 
A|--7/8--2--6~---| 
E|--5/6--0--4~---|  
		  

See also:

tabs Fall Out Boy - Beat It tabs Bad Religion - American Jesus tabs Afi - Miss murder tabs Green Day - Holiday ( Easy Version) tabs Green Day - Time of your life (good ridance) tabs Blink 182 - Stay together for the kids (ver. 2)
e-chords

Other versions:

tabs Black Flag - Room 13
auto scroll beats size up size down change color hide chords drawings
tab show chords e-chords YouTube Clip e-chords hide all tabs e-chords go to top tab

share