Big Wreck

home > Big Wreck

Wolves Tab

Big Wreck

Difficulty: nolevelnolevel

by LINEKERS

tuner correct add songbook print version text version save to e-mail
chordsukulelecavacokeyboardtabbassdrumsharmonicsflute Guitar Pro
chords

Wolves

  		 

verse 1: 

e|-2-2-2---2-2-2---2-2-2---2-2-2---------------------------------------------------| 
B|-3-3-3---3-3-3---3-3-3---3-3-3---------------------------------------------------| 
G|-2-0-2---2-0-2---2-0-2---2-0-2---------------------------------------------------| 
D|---------------------------------------------------------------------------------| 
A|---------------------------------------------------------------------------------| 
E|---------------------------------------------------------------------------------| 

e|-----------------------------------2-2-2---2-2-2---------------------------------| 
B|---0---0---0---0---0---0---0---0---3-3-3---3-3-3---------------------------------| 
G|--0---0---0---0---0---0---0---0----2-0-2---2-0-2---------------------------------| 
D|-2---4---5---7---9---7---5---4---------------------------------------------------| 
A|---------------------------------------------------------------------------------| 
E|---------------------------------------------------------------------------------| 

Chorus 1 & 2: 

e|-3---2-2-2---2-2-2---------------------------------------------------------------| 
B|-3---3-3-3---3-3-2---2-----------------------------------------------------------| 
G|-0---2-0-2---2-0-2---2-----------------------------------------------------------| 
D|-0-------------------2-----------------------------------------------------------| 
A|-2-------------------------------------------------------------------------------| 
E|-3-------------------------------------------------------------------------------| 

verse 2: 

e|-2-2-2---2-2-2----0---0----3----3---2-2-2---2-2-2--------------------------------| 
B|-3-3-3---3-3-3----0--0-0---3---3----3-3-3---3-3-3--------------------------------| 
G|-2-0-2---2-0-2----0-0---0--0--0-----2-0-2---2-0-2--------------------------------| 
D|------------------2--------0-0---------------------------------------------------| 
A|------------------2--------2-----------------------------------------------------| 
E|------------------0--------3-----------------------------------------------------| 

e|-----------------------------------2-2-2---2-2-2---------------------------------| 
B|---0---0---0---0---0---0---0---0---3-3-3---3-3-3---------------------------------| 
G|--0---0---0---0---0---0---0---0----2-0-2---2-0-2---------------------------------| 
D|-2---4---5---7---9---7---5---4---------------------------------------------------| 
A|---------------------------------------------------------------------------------| 
E|---------------------------------------------------------------------------------| 


Solo is on a mandolin. Haven't had a chance to figure it out yet. 

Outro Chorus: 

e|-3---2-2-2---2-2-2---------------------------------------------------------------| 
B|-3---3-3-3---3-3-2---2-----------------------------------------------------------| 
G|-0---2-0-2---2-0-2---2-----------------------------------------------------------| 
D|-0-------------------2-----------------------------------------------------------| 
A|-2-------------------------------------------------------------------------------| 
E|-3-------------------------------------------------------------------------------| 
                         x2                          End on: 
e|-3---2-2-2-------------------------------------2-2-2---2-2-2---2-2-2---2-2-2-----| 
B|-3---3-3-3----2--------------------------------3-3-3---3-3-3---3-3-3---3-3-3-----| 
G|-0---2-0-2----2--------------------------------2-0-2---2-0-2---2-0-2---2-0-2-----| 
D|-0------------2-4br2-------------------------------------------------------------| 
A|-2-------------------------------------------------------------------------------| 
E|-3-------------------------------------------------------------------------------| 

Hope you enjoy! Please rate! 

************************************ 

| /   slide up 
| \   slide down 
| h   hammer-on 
| p   pull-off 
| ~   vibrato 
| +   harmonic 
| x   Mute note 
| b   Bend 
| pb  Pre-bend 
| br  Bend release 
| pbr Pre-bend release 
| brb Bend release bend 

************************************ 
	  

Search Paypal
auto scroll beats size up size down change color hide chords drawings
tab show chords e-chords YouTube Clip e-chords hide all tabs e-chords go to top tab