Big Wreck

home > Big Wreck

War Baby Tab

Big Wreck

Difficulty: nolevelnolevel

by tercmoraes

tuner correct add songbook print version text version save to e-mail
chordsukulelecavacokeyboardtabbassdrumsharmonicsflute Guitar Pro
chords

War Baby

Key:  Bm More
War Baby Key F#mF#m
War Baby Key GmGm
War Baby Key G#mG#m
War Baby Key AmAm(one step down)
War Baby Key A#mA#m(half step down)
War Baby Key BmBm(original key)
War Baby Key CmCm(half step up)
War Baby Key C#mC#m(one step up)
War Baby Key DmDm
War Baby Key D#mD#m
War Baby Key EmEm
War Baby Key FmFm
  		
Intro 

(Rhythm)      
       Bm                   D                  G                Em  
e|------2-------------------2------------------3----------------0-------------| 
B|------3-------------------3------------------3----------------0-------------| 
G|------4-------------------2------------------0----------------0-------------| 
D|------4-------------------0------------------0----------------2-------------| 
A|------2--------------------------------------2----------------2-------------| 
E|---------------------------------------------3----------------0-------------| 

(Lead) 

e|--------8h9-(9)h10p9-7------------------------8h9-(9)h10p9-7--------------- 
B|-------------------------10-------------------------------------10---------| 
G|------------------------------9-----9---------------------------------9b11-| 
D|---------------------------------------------------------------------------| 
A|---------------------------------------------------------------------------| 
E|---------------------------------------------------------------------------| 

e|---------------------------------------------------------------------------| 
B|------------------------12---15b~---12-----------12------------------------| 
G|---(11)----------------12----------------14b16---------------------14------| 
D|-----------7----------12--------------------------------14--14/16----------| 
A|---------------------14----------------------------------------------------| 
E|---------------------------------------------------------------------------| 

e|-------------------------------7-10--/14/15p14~---14h15-14--12-------------| 
B|------------------------------8---------------------------------15--14--12-| 
G|--14h16-------------(11)-----9---------------------------------------------| 
D|---------16/14--12----------9----------------------------------------------| 
A|---------------------------7-----------------------------------------------| 
E|---------------------------------------------------------------------------| 

e|---------------------------------------------------------------------------| 
B|--14--12--11---------------------------------------------------------------| 
G|--------------14--12--11--12--14---12--11~---------------------------------| 
D|---------------------------------------------------------------------------| 
A|---------------------------------------------------------------------------| 
E|---------------------------------------------------------------------------| 

Verse 

       B Min              D maj              G maj            E min 
e|------2-------------------2------------------3----------------0-------------| 
B|------3-------------------3------------------3----------------0-------------| 
G|------4-------------------2------------------4----------------0-------------| 
D|------4-------------------0------------------5----------------2-------------| 
A|------2--------------------------------------5----------------2-------------| 
E|--------------------------------------------------------------0-------------| 


e|-------------------------| 
B|--0-----1-----2----------| 
G|--2-----3-----4----------| 
D|--2-----3-----4----------| 
A|-------------------------| 
E|-------------------------| 

Chorus 

      B Min               D maj               G maj            E min 
e|------2-------------------2------------------3----------------0-------------| 
B|------3-------------------3------------------3----------------0-------------| 
G|------4-------------------2------------------4----------------0-------------| 
D|------4-------------------0------------------5----------------2-------------| 
A|------2--------------------------------------5----------------2-------------| 
E|--------------------------------------------------------------0-------------|         


e|-------------------------| 
B|-------------------------| 
G|-------------------------| 
D|-------------------------| 
A|------------0-2-3-4------| 
E|---0-2-3-4---------------| 

Solo 

e|---7------------------------------------------------------------------------| 
B|-----10p7---------------------10p8b10---7----8------------------------------| 
G|----------9~-------/7-6-----------------------------------7p6-------7-9-----| 
D|------------------------7-----------------9----------7-9-------7-9----------| 
A|--------------------------7---------------------7-9-------------------------| 
E|----------------------------------------------------------------------------| 


e|-----------------------10--9------12----------------------------------------| 
B|--7-8-----7-8--10--12-----------------12b14--(14)12--10---------------------| 
G|-------9-------------------------------------------------12--11--9----------| 
D|--------------------------------------------------------------------12--11--| 
A|----------------------------------------------------------------------------| 
E|----------------------------------------------------------------------------| 

e|----------------------------------------------------------------------------| 
B|---------------------------11/12-(12)h13p12p10------------------------------| 
G|------------------------------------------------11--9-(9)h11p9/7------------| 
D|--9--11----------11h12--------------------------------------------9--/7--5--| 
A|---------12--12--------12---------------------------------------------------| 
E|----------------------------------------------------------------------------| 

e|----------------------------------------------------------------------------| 
B|------------------------------------7---7b8-r7------------------------------| 
G|-------------------6----7-----9------------------9--------------------------| 
D|------------6h7-------------------------------------9/-------------7h9p7----| 
A|--/7~------------0---0-----0-----0----0------------------------/9---------9-| 
E|----------------------------------------------------------------------------| 

e|--------------------------------------------------------10b12-r10p9---------| 
B|---------------------------10h12p10-------12b14r12b14~---------------10-----| 
G|--6h7p6-------9h11p9-----------------11----------------------------------11-| 
D|---------7------------11----------------------------------------------------| 
A|----------------------------------------------------------------------------| 
E|----------------------------------------------------------------------------| 

e|----------10--9-------------------------------------------------------------| 
B|--10--12---------10--12---------------------/10---10p8b10r8--8p7b8r7--------| 
G|-------------------------11h12--11h12p11p9---------------------------9---9--| 
D|----------------------------------------------------------------------------| 
A|----------------------------------------------------------------------------| 
E|----------------------------------------------------------------------------| 

e|--------------------------------------------------------------7--10~-10~--7-| 
B|-------------------------------------------------------------7--------------| 
G|--9b10r9--7--------------7-----9/10/9--7-----9-----7~--9----7---------------| 
D|----------------------9-----9-------------9-----9----------9----------------| 
A|----------------------------------------------------------------------------| 
E|----------------------------------------------------------------------------| 



************************************ 

| x   Dead note 
| (n) Ghost note 
| h   Hammer-on 
| p   Pull-off 
| b   Bend 
| /   Slide up 
| \   Slide down 
| ~   Vibrato 

************************************ 
	  

Full key step upFull key step up
Half key step upHalf key step up
Half key step downHalf key step down
Full key step downFull key step down
Search Paypal
auto scroll beats size up size down change color hide chords drawings
tab show chords e-chords YouTube Clip e-chords hide all tabs e-chords go to top tab