Big Wreck

Skybunk Marché Tab

Big Wreck

Difficulty: nolevelnolevel

by IronPower4Ever

tuner correct add songbook print version text version save to e-mail
chordsukulelecavacokeyboardtabbassdrumsharmonicsflute Guitar Pro
close

there isn't a video lesson for this song

request
chords

Skybunk Marché

  		Big Wreck - Skybunk Marché (Intro) 

Tabbed By: pauly_k63 

Intro 
e|-------------------------------------------------------------------------------| 
B|-------------------------------------------------------------------------------| 
G|-------------------------------------------------------------------------------| 
D|---------------2-2---2-----------------2----2--------------------2----4/6------| 
A|-------2-2-4-4-----4-----------2-2-4-4--4-2--4-2---------2-2-4-4--4-2----------| 
E|-0-3-3-------------------0-3-3--------------------0-3-3------------------------| 


e|-------------------------------------------------------------------------------| 
B|-------------------------------------------------------------------------------| 
D|-------------------------------------------------------------------------------| 
D|---------------4-4-2-2-0-0-----------------------------------------------------| 
A|-------2-2-4-4-----------------------------------------------------------------| 
E|-0-3-3-------------------------------------------------------------------------| 

e|-------------------------------------------------------------------------------| 
B|-------------------------------------------------------------------------------| 
G|-------------------------------------------------------------------------------| 
D|---------------2-2---2-----------------2----2--------------------2----4/6-4/6--| 
A|-------2-2-4-4-----4-----------2-2-4-4--4-2--4-2---------2-2-4-4--4-2----------| 
E|-0-3-3-------------------0-3-3--------------------0-3-3------------------------| 

e|-------------------------------------------------------------------------------| 
B|-------------------------------------------------------------------------------| 
G|-------------------------------------------------------------------------------| 
D|---------------4-4-2-2-0-0-----------------------------------------------------| 
A|-------2-2-4-4-----------------------------------------------------------------| 
E|-0-2-2----------------------0--------------------------------------------------| 



************************************ 

| /  Slide up 

************************************ 
	  

Search Paypal
auto scroll beats size up size down change color hide chords drawings
tab show chords e-chords YouTube Clip e-chords hide all tabs e-chords go to top tab

share with facebook