Bibio

You Won't Remember...

Bibio

tabs

by  SABRJOAO

save to print version add songbook text version e-mail correct tuner
chordsukulelecavacokeyboardtabbassdrumsharmonicaflute Guitar Pro
close

there isn't a video lesson for this song

chords

You Won't Remember...

	  		



Verse 
0-x-0-------0-x-| 
1-3-1-p0-h1-1-1-| 
0-x-2-------0-0-| 
2-x-2-------2-2-| 
3-2-0-------0-3-| 
0-x-x-------3-1-| 

0-0-x-0-------0-x-| 
3-1-3-1-p0-h1-1-1-| 
0-0-x-2-------0-0-| 
0-2-x-2-------2-2-| 
0-3-2-0-------0-3-| 
3-0-x-x-------3-1-| 


Chorus 
x-x-0-0-x-x-x-x-| 
5-8-0-1-3-1-0-1-| 
4-7-0-2-x-0-0-2-| 
2-5-3-2-x-2-0-2-| 
3-x-2-0-2-3-x-0-| 
x-7-1-x-x-x-0-x-| 

 
		  

See also:

tabs Sting - After The Rain Has Fallen tabs Kenny G - Dying Young tabs Duran Duran - Rio tabs Green Jelly - Three Little Pigs tabs Toto - Don't Chain My Heart tabs Toto - Home Of The Brave
e-chords

Other versions:

tabs Bibio - You Won't Remember...
auto scroll beats size up size down change color hide chords drawings
tab show chords e-chords YouTube Clip e-chords hide all tabs e-chords go to top tab

share