Bibio

Ode To A Nuthatch

Bibio

tabs

by  ANG-LETRA

save to print version add songbook text version e-mail correct tuner
chordsukulelecavacokeyboardtabbassdrumsharmonicaflute Guitar Pro
close

there isn't a video lesson for this song

chords

Ode To A Nuthatch

	  		 


Intro/Verse 
e|-------3-------------------------------------------| 
B|-----3-----1-0-------0-----------------------3-----| 
G|---0-----0-----2p0-2-------0-------0-2h4p2p0---0---| 
D|-----------------------4-----0-0h2---0-----------0-| 
A|-------------------2-----3-------------------2-----| 
E|-3-------------------------------------------------| 

Sometimes he will do a little flourish on the  
top 3 strings at the start of the measure 
e|-----3-----------------------------------------------| 
B|----3--3---3-1-0-------0-----------------------------| 
G|---0-----0-------2p0-2---0---0-------0-2h4p2p0-2p0---| 
D|-------------------------------0-0h2-----------0---0-| 
A|---------------------------------------3-------------| 
E|-3-------------------2-----0-------------------------| 

e|-------3-------------------------------------------| 
B|-----3-----1-0-------0-----------------------3-----| 
G|---0-----0-----2p0-2-------0-------0-2h4p2p0---0---| 
D|-----------------------4-----0-0h2---0-----------0-| 
A|-------------------2-----3-------------------2-----| 
E|-3-------------------------------------------------| 

e|-----3-----------------------------------------------| 
B|----3--3---3-1-0-------0-----------------------------| 
G|---0-----0-------2p0-2---0---0-------0-2h4p2p0-2p0---| 
D|-------------------------------0-0h2-----------0---0-| 
A|---------------------------------------3-------------| 
E|-3-------------------2-----0-------------------------| 

Chorus 
e|-------3-----------------3------------------------| 
B|-----0-----1-0-------0-3-----------------------0--| 
G|---0-----0-----2-0-2-------0-------0---0---0h2----| 
D|-----------------------------2-2h4-------4--------| 
A|-----------------------2-3-----------2------------| 
E|-0-----------------2------------------------------| 

e|-------3------------------------------------------| 
B|-----0-----1-0-------0---3-----------3------------| 
G|---0-----0-----2-0-2---2----0------0----0------0--| 
D|-----------------------------0-0h2-------0-0h4----| 
A|-------------------------3-----------2------------| 
E|-0-----------------2------------------------------| 

e|-------3-----------------3------------------------| 
B|-----0-----1-0-------0-3-----------------------0--| 
G|---0-----0-----2-0-2-------0-------0---0---0h2----| 
D|-----------------------------2-2h4-------4--------| 
A|-----------------------2-3-----------2------------| 
E|-0-----------------2------------------------------| 

another 3 string flourish 
e|-----3--------------------------------------------| 
B|----0--0---1-0-------0---3------------------------| 
G|---0-----0-----2-0-2---2---0------0-2h4p2p0-2p0---| 
D|----------------------------0-0h2---0-------0---0-| 
A|-------------------------3------------------------| 
E|-0-----------------2------------------------------| 

Intro/Verse 
e|-------3-------------------------------------------| 
B|-----3-----1-0-------0-----------------------3-----| 
G|---0-----0-----2p0-2-------0-------0-2h4p2p0---0---| 
D|-----------------------4-----0-0h2---0-----------0-| 
A|-------------------2-----3-------------------2-----| 
E|-3-------------------------------------------------| 

e|-----3-----------------------------------------------| 
B|----3--3---3-1-0-------0-----------------------------| 
G|---0-----0-------2p0-2---0---0-------0-2h4p2p0-2p0---| 
D|-------------------------------0-0h2-----------0---0-| 
A|---------------------------------------3-------------| 
E|-3-------------------2-----0-------------------------| 

e|-------3-------------------------------------------| 
B|-----3-----1-0-------0-----------------------3-----| 
G|---0-----0-----2p0-2-------0-------0-2h4p2p0---0---| 
D|-----------------------4-----0-0h2---0-----------0-| 
A|-------------------2-----3-------------------2-----| 
E|-3-------------------------------------------------| 

e|-----3-----------------------------------------------| 
B|----3--3---3-1-0-------0-----------------------------| 
G|---0-----0-------2p0-2---0---0-------0-2h4p2p0-2p0---| 
D|-------------------------------0-0h2-----------0---0-| 
A|---------------------------------------3-------------| 
E|-3-------------------2-----0-------------------------| 

Chorus 
e|-------3-----------------3------------------------| 
B|-----0-----1-0-------0-3-----------------------0--| 
G|---0-----0-----2-0-2-------0-------0---0---0h2----| 
D|-----------------------------2-2h4-------4--------| 
A|-----------------------2-3-----------2------------| 
E|-0-----------------2------------------------------| 

e|-------3------------------------------------------| 
B|-----0-----1-0-------0---3-----------3------------| 
G|---0-----0-----2-0-2---2----0------0----0------0--| 
D|-----------------------------0-0h2-------0-0h4----| 
A|-------------------------3-----------2------------| 
E|-0-----------------2------------------------------| 

e|-------3-----------------3------------------------| 
B|-----0-----1-0-------0-3-----------------------0--| 
G|---0-----0-----2-0-2-------0-------0---0---0h2----| 
D|-----------------------------2-2h4-------4--------| 
A|-----------------------2-3-----------2------------| 
E|-0-----------------2------------------------------| 

e|-----3--------------------------------------------| 
B|----0--0---1-0-------0---3------------------------| 
G|---0-----0-----2-0-2---2---0------0-2h4p2p0-2p0---| 
D|----------------------------0-0h2---0-------0---0-| 
A|-------------------------3------------------------| 
E|-0-----------------2------------------------------| 

Intro/Verse 
e|-------3-------------------------------------------| 
B|-----3-----1-0-------0-----------------------3-----| 
G|---0-----0-----2p0-2-------0-------0-2h4p2p0---0---| 
D|-----------------------4-----0-0h2---0-----------0-| 
A|-------------------2-----3-------------------2-----| 
E|-3-------------------------------------------------| 

e|-----3-----------------------------------------------| 
B|----3--3---3-1-0-------0-----------------------------| 
G|---0-----0-------2p0-2---0---0-------0-2h4p2p0-2p0---| 
D|-------------------------------0-0h2-----------0---0-| 
A|---------------------------------------3-------------| 
E|-3-------------------2-----0-------------------------| 

e|-------3-------------------------------------------| 
B|-----3-----1-0-------0-----------------------3-----| 
G|---0-----0-----2p0-2-------0-------0-2h4p2p0---0---| 
D|-----------------------4-----0-0h2---0-----------0-| 
A|-------------------2-----3-------------------2-----| 
E|-3-------------------------------------------------| 

e|-----3-----------------------------------------------| 
B|----3--3---3-1-0-------0-----------------------------| 
G|---0-----0-------2p0-2---0---0-------0-2h4p2p0-2p0---| 
D|-------------------------------0-0h2-----------0---0-| 
A|---------------------------------------3-------------| 
E|-3-------------------2-----0-------------------------| 

Chorus 
e|-------3-----------------3------------------------| 
B|-----0-----1-0-------0-3-----------------------0--| 
G|---0-----0-----2-0-2-------0-------0---0---0h2----| 
D|-----------------------------2-2h4-------4--------| 
A|-----------------------2-3-----------2------------| 
E|-0-----------------2------------------------------| 

e|-------3------------------------------------------| 
B|-----0-----1-0-------0---3-----------3------------| 
G|---0-----0-----2-0-2---2----0------0----0------0--| 
D|-----------------------------0-0h2-------0-0h4----| 
A|-------------------------3-----------2------------| 
E|-0-----------------2------------------------------| 

e|-------3-----------------3------------------------| 
B|-----0-----1-0-------0-3-----------------------0--| 
G|---0-----0-----2-0-2-------0-------0---0---0h2----| 
D|-----------------------------2-2h4-------4--------| 
A|-----------------------2-3-----------2------------| 
E|-0-----------------2------------------------------| 

e|-----3------------------------------------------------| 
B|----0--0---1-0-------0---3----------------------------| 
G|---0-----0-----2-0-2---2---0------0-2h4p2p0-2p0-------| 
D|----------------------------0-0h2---0-------0---0-----| 
A|-------------------------3----------------------------| 
E|-0-----------------2------------------------------3~--| 

Legend: 
************************************ 

| h  Hammer-on 
| p  Pull-off 
| ~  Vibrato 

************************************ 

There are some parts where he slightly exaggerates rhythms. It's hard to tab these 
slight variations out, I recommend just listening to the song to get a feel for it. 
More or less, every second measure has more of a swingy feel than the measure that 
came before it. Just play every second measure with swing and it will sound right. 

All corrections are appreciated. I feel like it's pretty accurate, I went through 
the video at .25 speed and listened to the individual notes. The only part I'm 100% 
on is the intro/verse section, because you can see his chord formations. The other 
parts could be hard to hear because of the mandolin. 

Thanks! 
		  

See also:

tabs Sting - After The Rain Has Fallen tabs Kenny G - Dying Young tabs Duran Duran - Rio tabs Green Jelly - Three Little Pigs tabs Toto - Don't Chain My Heart tabs Toto - Home Of The Brave
e-chords

Other versions:

tabs Bibio - Ode To A Nuthatch
auto scroll beats size up size down change color hide chords drawings
tab show chords e-chords YouTube Clip e-chords hide all tabs e-chords go to top tab

share